Gitar Akor Ve Tabları (Yabancı Şarkılar)

B

badem

Guest
Ynt: Gitar Akor Ve Tabları (Yabancı Şarkılar)

Korn - Coming Undone

Am
Keep holding on
G
When my brain's tickin' like a bomb
F Em
Guess the black bots have come again to get me
Am
Sweet bitter words
G
Unlike nothing i have heard
F
Sing along mocking bird
E
You don't affect me

A G A G B#
That's right
A G A G B#
Deliverance of my heart
A G A G B#
Be straight
A G A G B#
Be deliverance

A
Wait
G
I'm coming undone
A
Unlaced
G
I'm coming undone
A
Too late
G
I'm coming undone
A
What looks so strong
G
So delicate

A
Wait
G
I'm starting to suffocate
A
Unclead
G
And soon i anticipate
A
So Korns
G
I'm coming undone


G
What looks so strong
Em
So delicate


Am
Choke choke again
G
I find my demons are my friends
F
Getting me in the end
Em
They're out to get me
A
Since i was young
G
I've tasted sorrow on my tongue
F
And this sweet chugga gun
Em
Does not protect me

A G A G B#
That's right
A G A G B#
Trigger between my eyes
A G A G B#
Please strike
A G A G B#
Make it quick now

[chorus]

A
I'm trying to hold it together
G
Head is lighter than a feather
F
Looks like i'm not getting better
F
Not getting better
 
B

badem

Guest
Ynt: Gitar Akor Ve Tabları (Yabancı Şarkılar)

Korn - Here To Stay (Live Version)(tab)

|D|------------------------------------------------------------|
|A|------------------------------------------------------------|
|F|------------------------------------------------------------|
|C|------------------------------------------------------------|
|G|------------------------------------------------------------|
|D|------------------------------------------------------------|
|A|-0--1--0--1--0--1--0--1--~~~~-------------------------------|

2nd Intro:
(First actual note part)
Munky first 4x
Head and Munky next 4x

|D|----------------------------|-------------------------------|
|A|----------------------------|-------------------------------|
|F|----------------------------|-------------------------------|
|C|----------------------------|-------------------------------|
|G|----------------------------|-------------------------------|
|D|----------------------------|-------------------------------|
|A|-0----1----0-3-1-0-0-1-2----|-0----1----0-3-1-0-0-1-0-------|


|D|----------------------------|-------------------------------|
|A|----------------------------|-------------------------------|
|F|----------------------------|-------------------------------|
|C|----------------------------|-------------------------------|
|G|----------------------------|-------------------------------|
|D|-----------------------7----|-----------------------6-------|
|A|-5----6----5-8-6-5-5-6------|-5----6----5-8-6-5-5-6---------|


|D|------------------------------------------------------------|
|A|------------------------------------------------------------|
|F|------------------------------------------------------------|
|C|------------------------------------------------------------|
|G|------------------------------------------------------------|
|D|-3--------------------------3-------------------------------|
|A|-----2--0-2-3-2-0-2--0-2------2---0-2-3-2-0-2--0--2---------|


|D|------------------------------------------------------------|
|A|------------------------------------------------------------|
|F|--16------14------19-------21----23------------------------|
|C|---x-------x-------x--------x-----x-------------------------|
|G|--14------12------17-------19----21------------------------|
 
B

badem

Guest
Ynt: Gitar Akor Ve Tabları (Yabancı Şarkılar)

Amy Lee - Broken

Tuning:flat tuning
(high to low:- Eb Bb Gb Db Ab Eb)
Intro and verse

|-2h3---3-3---3--3-|
|----0----3--3-3---|
|-----0-----0---0--| x3
|-2----------------|
|---------3--------|
|------------------|

|-0h2---3p2--|
|-----3----3-|
|------2----2| x2
|-0----------|
|------------|
|------------|

Chorus

|--0-0-0-0-0--0----0-0-0-2-2-0-|
|--1-1-1-1-1--0----0-0-0-3-3-3-|
|--0-0-0-0-0--0----0-0-0-2-2-2-|
|--2-2-2-2-2--2----2-2-2-0-0-0-|
|--3-3-3-3-3--2----2-2-2-------|
|-------------0----0-0-0-------|

Solo

|---------------------------------------0-----------|
|-----------------------------------0-------0-------|
|---------------------------------------------------|
|--------0h2-&5---4---4---42---2-------------------|
|----0h2----------------7---------------------------|
|--0------------------------------------------------|


|--------------------------------------------------------|
|--------------------------------------------------------|
|-----------------------------------7---5---4-2-2&4-4-4-|
|--------0h2-&5---4---4---42--&7------------------------|
|----0h2----------------7--------------------------------|
|--0-----------------------------------------------------|


|-------------------------------------------------0---|
|---------------------------------------------0-------|
|-----------------------------------------------------|
|--------0h2-s5---4---4---42--&7---5-2--2-----------|
|----0h2----------------7-----------------------------|
|--0--------------------------------------------------|


|-----------------------------------------------------------------|
|-----------------------------------------------------------------|
|-----------------------------------7---5---4-2-2&4-4-4---5---4--|
|--------0h2-&5---4---4---4h5--&7---------------------------------|
|----0h2----------------7-----------------------------------------|
|--0--------------------------------------------------------------|

Outro

|---------------2-2---2---2-----|
|--------1-1-1--3--3-3-3--3-----|
|-0-0-0--0-0-0--2---2---2-2-0---|
|-2-2-2--2-2-2--------------2---|
|-2-2-2--3-3-3--------------2---|
|-0-0-0---------------------0---|
 
B

badem

Guest
Ynt: Gitar Akor Ve Tabları (Yabancı Şarkılar)

Placebo - Every Me Every You

intro:Dm Bb C-Dm Bb A5

Dm Bb C Dm
Sucker love is heaven sent
Bb C? Dm
You pucker up, our passion spent
Bb C Dm
My herat's a tart, your body�s rent
Bb C? Bb
My body's broken, yours is bent


Bm Dm
Carve your name into my arm
Bb
Instead of stressed I lie here charmed
F
Cause there's nothing else to do
A5 Dm
Every me and every you


Dm Bb C Dm
Sucker love a box I choose
Bb C? Dm
No other box I choose to use
Bb C Dm
Another love I would abuse
Bb C? Bb
No circumstances could excuse


Bb Dm
In the shape of things to come
Bb
Too much poison, come undone
F
Cause there's nothing else to do
A5 Bb
Every me and every you
F
Every me and every you
A5
Every me...


Dm Bb C Dm
Sucker love who's known to swing
Bb C? Dm
Prone to cling and waste these things
Bb C Dm
Pucker up for heaven's sake
Bb C? Bb
There's never been so much at stake


Bb Dm
I serve my head up on a plate
Bb
It's only comfort calling late
F
Cause there's nothing else to do
A5 Bb
Every me and every you
F
Every me and every you
A5
Every me


Dm Bb C Dm
Like the naked leads the blind
Bb C Dm
I know I'm selfish, I'm unkind
Bb C Dm
Sucker love I always find
Bb C Bb
Someone to bruise and leave behind


Bb Dm
All alone in space and time
Bb
There's nothing here but what here's mine
F
Something borrowed something blue
A5 Bb
Every me and every you
F
Every me and every you
A5 Bb
Every me�
 
B

badem

Guest
Ynt: Gitar Akor Ve Tabları (Yabancı Şarkılar)

Placebo - Five Years

G
Pushing through the market square
Em
So many mothers sighing
Am
News had just come over, we have
C
Five years left of crying

G
News guy wept and told us
Em
He said earth, was really dying
Am
Cried so much his face was wet
C
Then i knew, he was not lying

G
I heard telephones, opera house, favourite melodies
Em
There were boys toys, electric guns and TVs
C
My brain hurt like a warehouse, it had no room to spare
Am
I had to cram so many things to store everything in there
C
And all the fat, skinny people
Am C
And all the tall short, people
Am G
And all the nobody people
C D
And all the somebody people
Am C
Never thought i'd need, so many people

G
Girl my age went off her head
Em
Hit some tiny children
Am
And if the black hadn't have pulled her off
C
Then i think, she would have killed them

G
Soldier with a broken arm
Em
Used to stare into the wheels of a cadillac
Am
Cop knelt to kiss the feet of a priest
C
And a queer threw up at the sight of that, well

G
Think i saw you in an ice-cream parlour
Em
Drinking milkshakes cold and long
Am
Smiling and waving and looking so fine
C
Don't think you knew you were in this song

G
And it was cold, and it rained, so i felt like an actor
Em
And i thought of ma, and i wanted to get back there
Am
Vour face, your waist, the way that you talk
C
I miss you you're beautiful

G
We got five years stuck on my eyes
Em
Five years, what a surprise, we got
Am
Five years, my brain hurts alot
C
Five years, that's all we got
G ...G
We got, five years
 
B

badem

Guest
Ynt: Gitar Akor Ve Tabları (Yabancı Şarkılar)

Placebo - Meds

E5 G5
I was alone, falling free
C5 B5
Trying my best not to forget
E5
What happened to us
G5
What happened to me
C5 B5
What happened as i let it slip
E5 G5
I was confused by the powers that be
C5 B5
Forgetting names and faces
E5 G5
Passers by were looking at me
C5 B5
As if they could erase it


E5 G5 C5 B5
Baby, did you forget to take your meds?
Baby, did you forget to take your meds?

I was alone staring over the legde
Trying my best not to forget
All manner of joy
All manner of glee
And our one heroic pledge
That would matter to us
That would matter to me
And the consequences
I was confused by the birds and the bees
Forgetting if i meant it


Baby, did you forget to take your meds? (alison)
Baby, did you forget to take your meds? (alison)
Baby, did you forget to take your meds? (alison)
Baby, did you forget to take your meds? (alison)

E5 G5 C5 B5
Sex, and drugs, and complications
E5 G5 C5 B5
And the sex, and the drugs, and the complications
And the sex, and the drugs, and the complications
And the sex, and the drugs, and the complications

Baby, did you forget to take your meds?
Baby, did you forget to take your meds?
Baby, did you forget to take your meds?
Baby, did you forget to take your meds?
Baby, did you forget to take your meds?
Baby, did you forget to take your meds?

I was alone, falling free
Trying my best not to forget
 
B

badem

Guest
Ynt: Gitar Akor Ve Tabları (Yabancı Şarkılar)

Placebo - Song The Say Goodbye

G#m B F# (F#m A E)
You are one of God's mistakes.
You crying, tragic waste of skin.
I'm well aware of how it aches.
And you still won't let me in.
Now I'm breaking down your door,
To try and save your swollen face.
Though I don't like you anymore
You lying, trying waste of space.

E (D)
Before our innocence was lost

You were always one of those

B A# (A G#)
Blessed with lucky 7s,

And the voice that made me cry.

G#m B F# (F#m A E)
My oh my.

G#m B F# (F#m A E)
You were mother nature's son.
Someone to whom I could relate.
You're needle and your damage done,
Remains a sordid twist of fate,
Now I'm trying to wake you up,
To pull you from the liquid sky.
Cause if I don't we'll both end up with just your song to say goodbye.

G#m B F# (F#m A E)
My oh my.
A song to say goodbye,
A song to say goodbye,
A song to say,

E (D)
Before our innocence was lost

You were always one of those
B A# (A G#)
Blessed with lucky 7's,

And a voice that made me cry.


It's a song to say goodbye.
It's a song to say goodbye.
It's a song to say goodbye.
It's a song to say goodbye.
It's a song to say goodbye.
It's a song to say goodbye.
It's a song to say goodbye.
It's a song to say goodbye.
 
B

badem

Guest
Ynt: Gitar Akor Ve Tabları (Yabancı Şarkılar)

Placebo - Where Is My Mind

INTRO:
E5 C#5 G#5 A5 (x4)

E5 C#5 G#5 A5
With your feet in the air and your head on the ground
E5 C#5 G#5 A5
Try this trick and spin it, yeah
E5 C#5 G#5 A5
Your head will collapse, but there's nothing in it and you'll ask yourself
Nakarat:
E5 C#5 G#5 A5
Where is my mind? Where is my mind?
E5 C#5 G#5 A5
Where is my mind?

E5 C#5 G#5 A5

E5 G#5 A5 Am (bırakın çalsın)
Way out in the water, see it swimmin'
C#5 B5

E5 C#5 G#5 A5
I was swimmin' in the Carribean
E5 C#5 G#5 A5
Animals were hiding behind the rock
E5 C#5 G#5 A5
Except the little fish, but they told me, he swears tryin' to crash

Nakarat
ENSTRUMENTAL:
C#5 B5 (hold for 4 measures)

E5 C#5 G#5 A5
With your feet in the air and your head on the ground
E5 C#5 G#5 A5
Try this trick and spin it, yeah
E5 C#5 G#5 A5
Your head will collapse, but there's nothing in it and you'll ask yourself


Nakarat

C#5 B5
E5 C#5 G#5 A5
With your feet in the air and your head on the ground
E5 C#5 G#5 A5
Try this trick and spin it, yeah


OUTTRO:
E5 C#5 G#5 A5 (x3)
E5 C#5 G#5
 
B

badem

Guest
Ynt: Gitar Akor Ve Tabları (Yabancı Şarkılar)

Metallica - Ain't My Bitch(tab)

All guitars down 1&2 step
1)
Db--------------------------------5--------------------------
Ab--5-7-7-5---5-6-7-7-7--5--7-7-7---7--5-7-7-7-7-7-7--5-7-7-5
Eb--0-0-0-3---0-0-0-0-0--0--0-0-0------0-0-0-0-0-0-0--0-0-0-3
pm..... pm.................... .....................
opening and main riff


2)
Gb----------------------5------------------------------
Db--5-6-7-7-7--5--7-7-7---7--5-7-7-7-7-7-7--5-7-7-5----
Ab--0-0-0-0-0--0--0-0-0------0-0-0-0-0-0-0--0-0-0-5---2
Eb------------------------------------------------3---0
pm..................... ..................... let ring w& flange
"Head Strong..." "before"


3)
Db-----------------------------------------4------
Ab--(2)------------------------------------2--7--5
Eb--(0)-----------------------0-0-0-0-0-0-----5--3
pm...........
"you arrived......kiss your ass goodbye Dragging me down..."


4)
Db----------------------------- --------
Ab--5-4-3---------------------- -5-4-3-2
Eb--3-2-1-0-0-0-0-3-0-0-0-0-3-3 -3-2-1-0
pm....................
You're so useless It ain't my bitch!


5a) 5b)
eb--------------- ------------------
Bb--------------- ------------------
Gb----------2---- ---------2--------
Db----2-5-2---5-2 3 times ---2-5-2---5-2-5-5 then the first one
Ab--5------------ -5---------------- and play
Eb--------------- ------------------

5c)
eb-------------------
Bb------------------- This is a straight E pentatonic progression
Gb----------2-4-2---- Kirk plays this higher before the solo.
Db----2-5-2-------5-2
Ab--5----------------
Eb-------------------

5d)
eb-----------------------------------
Bb-------------10--------------------
Gb------9-12-9----9-12-9----9-12-9-12
Db---12------------------12----------
Ab-----------------------------------
Eb-----------------------------------


6)
Gb--2--4--2-------2--4--2 then about -4--6--4-------4--6--4
Db--2--4--2-------2--4--2 1&2 way -4--6--4-------4--6--4
Ab-----------4-4--------- through ----------6-6---------
Eb----------------------- up a step ----------------------
pm....................
solo riff


____________________
(Solo by Acosta®©)
Solo: (use slide bar)
Eb|--------------------------------------------------------------------------|
Bb|-----------------------------------------11--(11)---(11)-&11--12--13--&14|
Gb|---&11---119------11----------(11)9&11-----(11)---(11)-----------------|
Db|---&11---------11---------------------------------------------------------|
Ab|--------------------------------------------------------------------------|
Eb|--------------------------------------------------------------------------|

Eb|------------14-----------14----------14-----------14----------14----------|
Bb|---1412&14----1412&14-----1412&14-----1412&14----1412&14----1412&14-|
Gb|--------------------------------------------------------------------------|
Db|--------------------------------------------------------------------------|
Ab|--------------------------------------------------------------------------|
Eb|--------------------------------------------------------------------------|

Eb|---14----14&17----(17)---------16------16-------16-----16-------------19-|
Bb|---------14&----------------&16----16---------16----16-------16----16-----|
Gb|--------------------------------------------------------------------------|
Db|--------------------------------------------------------------------------|
Ab|--------------------------------------------------------------------------|
Eb|--------------------------------------------------------------------------|

Eb|--(19)----------------------------------------------------11&14----(14)-|
Bb|---19---------&12-------------(12)--&75---97---1211------------------|
Gb|---------&9--------------------------------------------------------------|
Db|--------------------------------------------------------------------------|
Ab|--------------------------------------------------------------------------|
Eb|--------------------------------------------------------------------------|

Eb|----------------------11&14--14&19---&19-----------------&19-&12------|
Bb|---&75---97---1211-------------------------------------------------&12|
Gb|--------------------------------------------------------------------------|
Db|--------------------------------------------------------------------------|
Ab|--------------------------------------------------------------------------|
Eb|--------------------------------------------------------------------------|


Eb|-------------------------------------------|
Bb|-7--(7)&9---------------------------(9)----|
Gb|-7--(7)&9---------------------------(9)----|
Db|-------------------------------------------|
Ab|-------------------------------------------|
Eb|--------------------------
 
B

badem

Guest
Ynt: Gitar Akor Ve Tabları (Yabancı Şarkılar)

Metallica - And Justice For All

|----------------------------------------------|
|----------------------------------------------|
|.---------------------------------------------|
|.-6-7-9---7-6h7p6-4-5-5-4-7-4-2-3-5---3-2h3p2-|
|--7-----7---------5-----5---5-3-----3---------|
|--0-------------------------------------------|

(x 5)
|----------------------------|
|----------------------------| 3rd and 4th times
|-----------------------2---.| play this with distortion
|-0-2-2-0-2-0-0-2-2-0-2---3-.| I can't remember how Gtr. 2 goes
|-2-----2---2-1-----1-----1--| 5th time play all distorted
|----------------------------|

Riff 1:
|------------------------------|--------------------------|
|-.----------------------------|--------------------------|
|-3----.-.----.-.-.----.-.-.-.-|-5-3-2---3-2-----2--------|
|-3----8-7----8-7-6----8-7-6-5-|-5-3-2-5-3-2-5-3-2-5-3-2--|
|-1----8-7----8-7-6----8-7-6-5-|-------5-----5-3---5-3-2--|
|------6-5----6-5-4----6-5-4-3-|--------------------------|

|---------------------------------|
|---------------------------------|
|--2------------------------------|
|--2--5--3--2----5-3-2---2--------|
|-----5--3--2----5-3-2-5-2-5-3-2--|
|----------------------5---5-3-2--|

Riff 2 (x 4)
|--------------------------------|-----------------------------------|
|--------------------------------|-----------------------------------|
|--------------------------------|.---------------------------------.|
|-2------------------------(2)---|.-(2)-------------------------(2)-.|
|-2------------------------(2)---|--(2)-------------------------(2)--|
|-0------------------------(0)---|--(0)-------------------------(0)--|

Riff 3: (x 4)
|------------------------------------------------|
|------------------------------------------------|
|-.-.----.-.------------------.-.----------------|
|-8-8-7--8-8-7---------------8-8-7---------------|
|-8-8-7--8-8-7----5h7-7-5----8-8-7----5h7-7-5----|
|-6-6-5--6-6-5--0---------7--6-6-5--0---------7--|

Riff 4:
|-------------------------|-----------|-----------|-----------|
|-------------------------|-----------|-----------|-----------|
|-.-.----.-.--------------|-2---------|-----------|-2---------|
|-8-8-7--8-8-7--2---------|-2---------|-2---------|-2---------|
|-8-8-7--8-8-7--2---------|-0---------|-2---------|-0---------|
|-6-6-5--6-6-5--0---------|-----------|-0---------|-----------|

Riff 3 (x 2)

Riff 5:
|-------------------------------------------------|
|-------------------------------------------------|
|-.-.----.-.------.----.--------------.----.------|
|-8-8-7--5-5-4----2--x-2-2-------3----2--x-2--2---|
|-8-8-7--5-5-4--.-2--x-2-2---.-.-3--.-2--x-2--2---|
|-6-6-5--3-3-2--0-0--x-0-0---0-0-1--0-0--x-0--0---|

|---------------------------------------------------------------|
|---------------------------------------------------------------|
|-.-.----.-.------.----.--------------.----.------.-.----.-.----|
|-8-8-7--8-8-7----2--x-2-2-------3----2--x-2--2---8-8-7--8-8-8-|
|-8-8-7--8-8-7--.-2--x-2-2---.-.-3--.-2--x-2--2---8-8-7--8-8-8-|
|-6-6-5--6-6-5--0-0--x-0-0---0-0-1--0-0--x-0--0---6-6-5--6-6-6-|

Verse 1
=======
Riff 6: (x 4)
|-------------------------------------------------|
|-------------------------------------------------|
|--------.-------------------.------.-.----.-.----|
|---2--x-2-2-------3----2--x-2--2---8-8-7--8-8-7--|
|-.-2--x-2-2---.-.-3--.-2--x-2--2---8-8-7--8-8-7--|
|-0-0--x-0-0---0-0-1--0-0--x-0--0---6-6-5--6-6-5--|

Fill 1: ??
|-----------------------------|
|-----------------------------|
|-----------------------------|
|-----------------------------|
|-----------------------------|
|-----------------------------|

Riff 7: (x 3)
|-------------------------------|------------------------------------|
|-------------------------------|------------------------------------|
|.-----------------------------.|--------------0h5h7-----------------|
|.-3-------------43---4&5-4&5-.|-3-----------------0h5h7------------|
|--3-------------43---4&5-4&5--|-3----------------------0h5h7-0h2h3-|
|--1-1-1-1-1-1-1-21-0-2&3-2&3--|-1-1-1-1-1-1-1----------------------|

(x 3)
|-------------------------------|------------------------------------|
|-------------------------------|------------------------------------|
|.-----------------------------.|--------------0h5h7-----------------|
|.-3-------------43---4&5-4&5-.|-3-----------------0h5h7------------|
|--3-------------43---4&5-4&5--|-3----------------------0h5h7-0h2h3-|
|--1-1-1-1-1-1-1-21-0-2&3-2&3--|-1-1-1-1-1-1-1----------------------|

|-------------------------------------------------------|
|-------------------------------------------------------|
|-0h5h7-------------------------------------------------|
|------0h5h7------------4-2--------------43---4&5-4&5--|
|-----------0h5h7-0h2h3-4-2--------------43---4&5-4&5--|
|-----------------------2-0--0-0-0-0-0-0-21-0-2&3-2&3--|

Chorus
======
Riff 8:
|-------------------------------------------------|
|-------------------------------------------------|
|--2----4----5------------------------------------|
|--2----4----5----4-2--------------43---4&5-4&5--|
|--0----2----3----4-2--------------43---4&5-4&5--|
|-----------------2-0--0-0-0-0-0-0-21-0-2&3-2&3--|

|------------------------------------------|-------------------------|
|------------------------------------------|-------------------------|
|-2----4-----------------------------------|-2----4----0----5--------|
|-2----4----4-2--------------43---4&5-4&5-|-2----4----0----5----2---|
|-0----2----4-2--------------43---4&5-4&5-|-0----2---------3----2---|
|-----------2-0--0-0-0-0-0-0-21-0-2&3-2&3-|-----------3---------0---|

Riff 3 (x 2)
Riff 5
Verse
Chorus

Riff 3 (x 2)
Riff 1
Riff 2

Solo
====
Riff 7
Riff 6 (x ?)

Fill 2: ??
|------------------------------------------|
|------------------------------------------|
|------------------------------------------|
|------------------------------------------|
|------------------------------------------|
|------------------------------------------|

Riff 6 (x 3)
|--------------------------------------------------------------------|
|--------------------------------------------------------------------|
|--------------------------------------------------------------------|
|-8-8-7--8-8-7--7-7-6--7-7-6--6-6-5--6-6-5--5-5-4--5-5-4--3-4-4-4-4--|
|-8-8-7--8-8-7--7-7-6--7-7-6--6-6-5--6-6-5--5-5-4--5-5-4--3-4-4-4-4--|
|-6-6-5--6-6-5--5-5-4--5-5-4--4-4-3--4-4-3--3-3-2--3-3-2--1-2-2-2-2--|

Intro (x 5) w&distortion
(x 3)
|--------------------------------------------------|-----------------|
|--------------------------------------------------|-----------------|
|------.-.---.-----.-.---.-----.-.---.-----.-.---.-|.-----.-.---.---.|
|--6---6-6-6-6-4---4-4-4-4-2---2-2-2-2-0---0-0-0-0-|.-0---0-0-0-0---.|
|--7---7-7-7-7-5---5-5-5-5-3---3-3-3-3-2---2-2-2-2-|--1---1-1-1-1----|
|--------------------------------------------------|-----------------|

(x 2)
|--------------------|---------------------------|
|--------------------|---------------------------|
|--------------------|.-------------------------.|
|--2------------(2)--|.-(2)-----------------(2)-.|
|--2------------(2)--|--(2)-----------------(2)--|
|--0------------(0)--|--(0)-----------------(0)--|

Riff 3 (x 2)

Fill 3:
|--------------|
|--------------|
|-.-.----.-.---|
|-8-8-7--2-2-3-|
|-8-8-7--2-2-3-|
|-6-6-5--0-0-1-|

Verse
Chorus
Riff 4 (repeat last bar)
Riff 8 (last bar only)
Riff 4

|---------|---------|---------|---------|---------|
|---------|---------|---------|---------|---------|
|-7-------|-5-------|---------|---------|-.-.-.---|
|-7-------|-5-------|-7-------|-5-------|-5-4-2---|
|-5-------|-3-------|-7-------|-5-------|-5-4-2---|
|---------|---------|-5-------|-3-------|-3-2-0---|

|---------|---------|---------|---------|
|---------|---------|---------|---------|
|---------|-5-------|---------|-.-.-.---|
|-5-------|-5-------|-7-------|-5-4-2---|
|-5-------|-3-------|-7-------|-5-4-2---|
|-3-------|---------|-5-------|-3-2-0---|

|---------|---------|---------|---------|
|---------|---------|---------|---------|
|---------|-.-.-.---|---------|-.-.-.---|
|-5-------|-5-4-2---|---------|-5-4-2---|
|-5-------|-5-4-2---|---------|-5-4-2---|
|-3-------|-3-2-0---|---------|-3-2-0---|
--

Here's the interlude to ...And Justice For All, tabbed out by
measures..it's mostly in 4&4 time, but the bars w&a "**" on the low E are
in 2&4. Obviously, i didn't include note values, but this is all pretty
straightforward.

e-------------------------|---------|--------|------------------|
B-------------------------|-------8-|-7------|------------------|
G-------------------0h5h7-|-----9---|---9--7-|-5-4-4-4-5p4------|
D-------------0h5h7-------|--&9-----|--------|-------------7----|
A-0h2h3-0h5h7-------------|---------|--------|------------------|
E-------------------------|---------|--------|------------------|

e--------------------|--------|--------|------------------|-----|
B--------------------|------8-|-7------|------------------|-----|
G-4------------------|----9---|---9--7-|-5--4-4--4--5p4p0-|-----|
D---7-5--3-3h5p32~~-|-&9-----|--------|------------------|-----|
A--------------------|--------|--------|------------------|-----|
E--------------------|--------|--------|------------------|-----|

e-------------|--------|------------|-----------|---------------|
B-------------|------8-|-7--5h7p53-|------8h10-|-8-7h8p75-----|
G-------------|----9---|------------|----9------|---------------|
D-2&3--rest---|-&9-----|------------|-&9--------|---------------|
A-------------|--------|------------|-----------|---------------|
E-------------|--------|------------|-----------|---------------|

e-----------|---------------------------|-----------------------|
B------&12--|-12p10p8-12p10p8-12p10p87-|---(this isn't a rest,
G----9------|---------------------------|-----i couldn't fit ---|
D-&9--------|---------------------------|-----the next measure)-|
A-----------|---------------------------|-----------------------|
E-----------|---------------------------|-----------------------|

e------------------------------|--------------------------------|
B------------------------------|--------------------------------|
G-11p9p7-11p9p7-11p9p75-9p7p5-|--0h5h7-------------------------|
D------------------------------|--------0h5h7-------------------|
A------------------------------|--------------0h5h7--0h2h3------|
E------------------------------|------------------------play 2x-|

e---------------|----------------------|-------14-------17fb----|
B---------------|-17----14-------------|----------14------------|
G-5-5--4--5-5-4-|-16fb--14-----14-16fb-|-(16)------------------|
D-5-5--4--5-5-4-|-----------16---------|------------------------|
A-3-3--2--3-3-2-|----------------------|------------------------|
E---------------|----------------------|-**---------------------|
pm-- pm-

e-(17)r-17-14-17p14-17p14----19p14-|-20p14-20p14----19p14-19p14-17-|
B-------------------------17-------|-------------17----------------|
G----------------------------------|-------------------------------|
D----------------------------------|-------------------------------|
A----------------------------------|-------------------------------|
E----------------------------------|-**----------------------------|

e-17p14-17p14----14-14----------|-------------------------------|
B-------------17----17fb--------|---16hb----16hb----------------|
G----------------------------14-|---16fb----16fb----------------|
D-------------------------16----|-------------------------------|
A-------------------------------|-------------------------------|
E-------------------------------|-**----------------------------|

e--------------------------|----------vib w&bar-----------------|
B-16hbr--14h16-14----16-14-|----14-17~~~~~~~~~~-----------------|
G-16fbr--14----14----16-14-|----14-16fb-------------------------|
D-----------------16-------|-16---------------------------------|
A--------------------------|------------------------------------|
E--------------------------|------------------------------------|

e-----------------------------17p14-----------------------------|
B-14---14-17p14------14-17p14-------17-14------14---------------|
G-16fb----------16fb----------------------16fb------------------|
D---------------------------------------------------------------|
A---------------------------------------------------------------|
E-(w&wah as filter)---------------------------------------------|

e----------------|---------------------------|------------------|
B-17p14----------|-------14h17-15fbrp14-17fbr|p14h17---17fbrp14h|
G-------16-14----|-14-16---------------------|------------------|
D-------------16-|---------------------------|------------------|
A----------------|---------------------------|------------------|
E-**-------------|---------------------------|-**---------------|

e------------17fb-17hb-|-(17)~~---------|-----------------------|
B17-17fbrp14-----------|-------x--------|-------holdbend________|
G----------------------|------16p14h16--|-16-16fb-16-16-16-16-16|
D----------------------|----------------|-----------------------|
A----------------------|----------------|-----------------------|
E----------------------|-**-------------|-----------------------|

e----------------|-22p19p0-0-0-21p17p0-0-0-18p15p0-0-0-17p14p0-0-0-|
B__------17fb~~~-|-------------------------------------------------|
G16rp14----------|-------------------------------------------------|
D----------------|-------------------------------------------------|
A----------------|-------------------------------------------------|
E----------------|-------------play 2 times------------------------|

e-19p0-17p0-15p0-14p0-17p0-15p0-14p0-12p0-----------------------|
B---------------------------------------------------------------|
G---------------------------------------------------------------|
D---------------------------------------------------------------|
A---------------------------------------------------------------|
E---------------------------------------------------------------|
harm.
e-15p0-14p0-12p0-10p0-10p8p7--------10p8p7--------|-*-----------|
B----------------------------10p8p7--------10p8p0-|-5----------|
G-------------------------------------------------|-5----------|
D-------------------------------------------------|-trem dive---|
A-------------------------------------------------|-------------|
E-------------------------------------------------|-------------|
 
B

badem

Guest
Ynt: Gitar Akor Ve Tabları (Yabancı Şarkılar)

Metallica - Astronomy

Intro: (six bar without bass)
|--------------------------------|--------------------------------|
|--------------------------------|-------------9-----7h9---7------|
|-7---7-------7------------------|-7---7-------7--------------10--|
|-0---0-------0------------------|-0---0--------------------------|

|--------------------------------|--------------------------------|
|-------------9------------------|-------------9-----7h9---7------|
|-7---7-------7------------------|-7---7-------7--------------10--|
|-0---0--------------------------|-0---0--------------------------|

|--------------------------------|--------------------------------|
|-------------9------------------|-------------------7h9---7------|
|-7---7-------7------------------|-7---7-------7--------------10--|
|-0---0--------------------------|-0---0-------0------------------|

Verse 1: 2&4
|--------------------------------|--------------------------------|
|-------------------------7------|--------------------------------|
|-7----------(7)-'5-----------5-'|-3---------------2--------------|
|-0------------------------------|--------------------------------|
4&4
|--------------------------------|--------------------------------|
|-------------9------------------|-------------------------7------|
|-----7--------------------------|-7----------(7)'-5-----------5'-|
|-0------------------------------|-0------------------------------|
2&4 4&4
|--------------------------------|--------------------------------|
|-------------5------------------|--------------------------------|
|-3---------------2--------------|-------------7------7p5---------|
|--------------------------------|-0---0-----------------7'3---5--|

|--------------------------------|--------------------------------|
|---------5-------5-------7-5----|--------------------------------|
|-3---------5&7---------------7-'|-3-----3h5-p-3---2---------3-5--|
|--------------------------------|--------------------------------|
2&4
|--------------------------------|--------------------------------|
|---------9---------------7------|---------5----------------------|
|-7-----------7-'-5-----------5-'|-3---------------2--------------|
|--------------------------------|--------------------------------|
4&4
|--------------------------------|--------------------------------|
|-------------9------------------|-------------9-----7h9---7------|
|-----7--------------------------|-----7----------------------10--|
|-0------------------------------|-0------------------------------|

|--------------------------------|--------------------------------|
|-------------9------------------|-------------------7h9---7------|
|-----7--------------------------|-7---7-------7--------------10--|
|-0---0--------------------------|-0---0-------0------------------|

Verse 2: 2&4
|--------------------------------|--------------------------------|
|-------------------------7------|---------5---------------4------|
|-7----------(7)'-5-----------5-'|-3---------------2--------------|
|-0------------------------------|--------------------------------|
4&4
|--------------------------------|--------------------------------|
|-------------9------------------|-------------------------7------|
|-----7----------------------10--|-7-----------7-'-5-----------5--|
|-0------------------------------|-0------------------------------|
2&4 4&4
|--------------------------------|--------------------------------|
|-----5--------------------------|--------------------------------|
|-3---------------2--------------|-------------7------7p5---------|
|--------------------------------|-0---0-----------------7'3---5--|

|--------------------------------|-------------------------4------|
|-------------5----------7p5-----|----------------------4---------|
|-3------5&7-----------------7p5'|-3-----3h5-p-3---2-2---------2-&|
|--------------------------------|--------------------------------|
2&4
|--------------------------------|--------------------------------|
|---------9----------------------|--------------------------------|
|-7-----------7-'-5-------5h7p5--|-3---------------2--------------|
|--------------------------------|--------------------------------|
4&4
|--------------------------------|--------------------------------|
|-------------9------------------|-9-----------9-----7h9---7------|
|-----7--------------------------|-7---7-------7--------------10--|
|-0------------------------------|-----0--------------------------|

Interlude:
4&4
|--------------------------------|--------------------------------|
|--------------------------------|--------------------------------|
|-7---------------5--------------|-3---------------7--------------|
|-0------------------------------|-----------------0--------------|

|--------------------------------|--------------------------------|
|--------------------------------|--------------------------------|
|-7---------------5--------------|-3---------------7-5------------|
|-0------------------------------|---------------------7---5--b3--|

|--------------------------------|--------------------------------|
|--------------------------------|-----------------------------5--|
|-7---------------5--------------|-3---------------7--------------|
|-0------------------------------|-----------------0---5-h-7------|
2&4
|--------------------------------|--------------------------------|
|--------------------------------|--------------------------------|
|-7---------------5--------------|-3------------------------------|
|-0------------------------------|--------------------------------|
4&4
|--------------------------------|
|--------------------------------|
|-3----------2-3--5--------4--5--|
|----0-3-3h5----------5--7-------|

Fig.1 (Play in the structure below)
|--------------------------------|--------------------------------|
|-9--x-9---x--9---x-x-5---5--x-x-|-7--x-7---x--7---x-x-9---9--x-x-|
|-7--x-7---x--7---x-x-3---3--x-x-|-5--x-5---x--5---x-x-7---7--x-x-|
|--------------------------------|--------------------------------|

Play Fig.1 x 2 (With "Hey!" at the beginning of each bar)
Play Fig.1 x 4 (For first bridge)
Play Fig.1 x 4 (For second bridge)

|--------------------------------|--------------------------------|
|-7---5-----7-------5-5-5-5-5-5--|-7---5-----7-------5-5-5-5-5-5--|
|-5---3-----5-------3-3-3-3-3-3--|-5---3-----5-------3-3-3-3-3-3--|
|--------------------------------|--------------------------------|
Ne- ver Warms Ne- ver Warms

|--------------------------------|--------------------------------|
|-7---5-----7-------5-5-----5----|--------------------------------|
|-5---3-----5-------3-3-----3----|-7------------------------------|
|--------------------------------|-0------------------------------|
Ne- ver Warms...

|-G-|----------------------------|--------------------------------|
|-u-|----------------------------|--------------------------------|
|-i-|-------------2p0-0----------|--------------------------------|
|-t-|----------------3----3&-----|-0------------------------------|

|--------------------------------|--------------------------------|
|-------------9------------------|-------------9-----7h9---7------|
|-----7--------------------------|-----7----------------------10--|
|-0------------------------------|-0------------------------------|

|--------------------------------|--------------------------------|
|-------------9------------------|-------------9-----7h9---7------|
|-----7--------------------------|-----7----------------------10--|
|-0------------------------------|-0------------------------------|

Verse 3: 2&4
|--------------------------------|--------------------------------|
|-------------------------7------|---------5----------------------|
|-7----------(7)'-5-----------5-'|-3---------------2------2p0-----|
|-0------------------------------|--------------------------------|
4&4
|--------------------------------|--------------------------------|
|--------------------------------|-------------------------7------|
|-------------7------------------|-7----------(7)'-5-----------5-'|
|-0-----------0------------------|-0------------------------------|
2&4 4&4
|--------------------------------|--------------------------------|
|-----5--------------------------|--------------------------------|
|-3---------------2--------------|-------------7------7p5---------|
|--------------------------------|-0---0------------------7'3--5--|

|--------------------------------|-------------------------4------|
|-------------5----------7p5-----|--------------------------------|
|-3---3-&5h7-----------------7p5'|-3-----------5---2-----------2-&|
|--------------------------------|--------------------------------|
2&4
|--------------------------------|-------------------------4------|
|---------9---------------7------|---------5----------------------|
|-7-----------7-'-5-----------5-'|-3---------------2--------------|
|--------------------------------|--------------------------------|
4&4
|--------------------------------|--------------------------------|
|-------------9------------------|-9-----------9-----7h9---7------|
|-----7--------------------------|-7---7-------7--------------10--|
|-0------------------------------|-----0--------------------------|

Interlude:
|--------------------------------|--------------------------------|
|--------------------------------|--------------------------------|
|-7---------------5--------------|-3---------------7--------------|
|-0------------------------------|-----------------0--------------|

|--------------------------------|--------------------------------|
|--------------------------------|--------------------------------|
|-7---------------5--------------|-3---------------7--------------|
|-0------------------------------|-------------------0--3--5---7--|

|--------------------------------|--------------------------------|
|--------------------------------|--------------------------------|
|-7---------------5--------------|-3---------------7---5----------|
|-0------------------------------|-------------------0------7--3--|
2&4
|--------------------------------|--------------------------------|
|--------------------------------|--------------------------------|
|-7---------------5--------------|-3-------3-------3---3---3---3--|
|-0------------------------------|--------------------------------|
4&4
|--------------------------------|
|--------------------------------|
|-3----------2-3--5--------4--5--|
|----0-3-3h5----------5--7-------|

Guitar Solo:
|--------------------------------|--------------------------------|
|-9--x-9---x--9---x-x-5---5--x-x-|-7--x-7---x--7---x-x-9---9--x-x-| x 2
|-7--x-7---x--7---x-x-3---3--x-x-|-5--x-5---x--5---x-x-7---7--x-x-|
|--------------------------------|--------------------------------|
1.
|--------------------------------|--------------------------------|
|-9--x-9---x--9---x-x-5---5--x-x-|-7--x-7---x--7---x-x-9----------|
|-7--x-7---x--7---x-x-3---3--x-x-|-5--x-5---x--5---x-x-7--7-7-9-10|
|--------------------------------|--------------------------------|
2.
|--------------------------------|
|-7--x-7---x--7--7-5-----5-------|
|-5--x-5---x--5------7-5---7-5---|
|------------------------------7-|

Bridge:
|--------------------------------|--------------------------------|
|-9--x-9---x--9---x-x-5---5--x-x-|-7--x-7---x--7---x-x-9---9------|
|-7--x-7---x--7---x-x-3---3--x-x-|-5--x-5---x--5---x-x-7---7--9-10|
|--------------------------------|--------------------------------|
Call me Desdinova... eternal light...
|--------------------------------|--------------------------------|
|-9--x-9---x--9---x-x-5---5--x-x-|-7--x-7---x--7--7-5-------5-----|
|-7--x-7---x--7---x-x-3---3--x-x-|-5--x-5---x--5------7-5-7---7-5-|
|--------------------------------|--------------------------------|

|--------------------------------|--------------------------------|
|-9--x-9---x--9---x-x-5---5--x-x-|-7--x-7---x--7---x-x-9---9--7-5-|
|-7--x-7---x--7---x-x-3---3--x-x-|-5--x-5---x--5---x-x-7---7------|
|--------------------------------|--------------------------------|

Interlude:
|--------------------------------|--------------------------------|
|--------------------------------|--------------------------------|
|-7------------------------------|-3---------------------------5-&|
|-0------------------------------|--------------------------------|

|--------------------------------|--------------------------------|
|--------------------------------|-5-------------------5---5---7--|
|-7---------------7----p----5h7--|--------------------------------|
|--------------------------------|--------------------------------|

|--------------------------------|--------------------------------|
|-7&9-----------------------7h9--|-5-------------------7---7---5--|
|--------------------------------|--------------------------------|
|--------------------------------|--------------------------------|

|--------------------------------|--|
|--------------------------------|--|
|-7------------------------------|--|
|--------------------------------|--|

|--------------------------------|--------------------------------|
|--------------------------------|--------------------------------|
|--------------------------------|--------------------------------|
|-------0-0-0-0-0-0-0-0-0-0-0-0--|-0-0-0-0-0-0-0-0-0-0-0-0-0-0-0-0|

Ending: (repeat and fade)
|--------------------------------|--------------------------------|
|-9--x-9---x--9---x-x-7---7------|-5--x-5---x--5---x-x-7---7--7-5-| x 4
|-7--x-7---x--7---x-x-5---5--7-5-|-3--x-3---x--3---x-x-5---5------|
|----------------------------
 
B

badem

Guest
Ynt: Gitar Akor Ve Tabları (Yabancı Şarkılar)

Metallica - Attitude
Intro Part 1

Gtr 1
* Very quick hammer on and very slow bend.
e:----------------------------------------------------------------------]
B:----------------------------------------------------------------------]
G:----------------------------------------------------------------------]
D:-5h7bbbbbb9--7-5-7-5----------------------5h7bbbbbb9--7-5-7-5---------]
A:---------------------7~~~~~'----------------------------------7~~~~~'-]
E:----------------------------------------------------------------------]

Gtr 2

e:--------------------------------------]
B:--------------------------------------]
G:--------------------------------------]
D:-------------------------5--5--5-5s7--]
A:-------------------------5--5--5-5s7--]
E:-----------------------0-3--3--3-3s5--]

Intro Part 2

Gtr 1 Only Both
e:--------------{--------------&
B:--------------5--------------&
G:--------------7bb9-7-5-7-7-9-&
D:-7bb9-7-5-7-5------------7-9-&
A:-------------------------5-7-&
E:-----------------------------&


x4
e:------------------------------------------------------&-]
B:------------------------------------------------------&-]
G:-----------9'------------9'-----------------------7-9-&-]
D:-----4h5---9'------4h5---9'-----4h5---------------7-9-&-]
A:-----5-----7'------5-----7'-----5-----5----7----5-5-7-&-]
E:-0-0-----0-----0-0-----0----0-0-----0-3--0-5--0-3-----&-]
PM(E only------------------------)

Verse

e:----------------------------------------]
B:----------------------------------------]
G:----------------------------------------]
D:----------------------------------------]
A:-7s5-2-2---7-7-7-5---7s5-2-2---5-5-5-7--]
E:-5s3-0-0---5-5-5-3---5s3-0-0---3-3-3-5--]

e:------------------------------------------------]
B:------------------------------------------------]
G:------------------------------------------------]
D:------------------------------------------------]
A:-7s5-2-2---7-7-7-5---7s5-2-2---2-2-2-2-2-2-2-2--]
E:-5s3-0-0---5-5-5-3---5s3-0-0---0-0-0-0-0-0-0-0--]
PM--------------)

Pre-Chorus
x 3
e:----------------&---------]
B:-------5-----3--&---------]
G:----------------&---------]
D:---7------------&---------]
A:-7---------5----&---------]
E:----------------&---------]

x 3
e:----------------&---------]
B:----------------&---------]
G:----------------&---------]
D:-7---------5----&---5-5---]
A:-7---------5----&---5-5---]
E:-5---------3----&-0-3-3---]

Chorus

e:---------------------------------]
B:---------------------------------]
G:---------------------------------]
D:---------------------------------]
A:-5s7----8---5---2-2-2-2-2-2-2-2--]
E:-3s5--0-6-0-3---0-0-0-0-0-0-0-0--]
PM--------------)

Riffs played in this order-

INTRO 1 . INTRO 2 . VERSE . PRE-CHORUS . CHORUS .
INTRO 2 . VERSE . PRE-CHORUS . CHORUS . SOLO .
VERSE . PRE-CHORUS . CHORUS . CHORUS .

The lyrics are below

Suppose I say, I'm never satisfied
Suppose I say, he cuts the roots
To make the tree survive

Just let me kill you for a while
Just let me kill you for a smile
Just let me kill you once
I'm oh so born to die

Oh, I hunger
I hunger
I eat

Born into attitude
Asleep at the wheel
Throw all your bullets in the fire
And run like hell
I get a fever, what ever happened to sweat?

Suppose I say, the vultures smile at me
Suppose I say, I set them down they plan to pick you clean

And satisfaction this way comes
And satisfaction this way comes
And satisfactions here and gone
Gone, yeah, gone again

Oh, I hunger
Oh, I hunger
I eat

Born into attitude
Asleep at the wheel
Throw all your bullets in the fire
And stand there

Born into attitude
Twist mother tongue
Throw all your bullets in the fire
And run like hell
I get a fever, what ever happened to sweat?

Just let me kill you for a while
Just let me kill you for a smile
Just let me kill you once for me
I'm born to die

And satisfaction this way comes
And satisfaction this way comes
And satisfactions here and gone
Gone, gone again

Yeah, I hunger
Oh, I hunger
I eat

Born into attitude
Asleep at the wheel
Throw all your bullets in the fire
And stand there

Born into attitude
Twist mother tongue
Throwing all your bullets in the fire
And run like hell
I get a fever, what ever happened to sweat
 
B

badem

Guest
Ynt: Gitar Akor Ve Tabları (Yabancı Şarkılar)

Metallica - Bad seed

(cough)

CC -X--X--X--X--|-X--X--X--X--|
SD -------o-----|----------o--|
BD -o--------o--|-o--o--o--o--|

CC -X--X--X--X--|-X--X--X--X--|
SD -------o-----|----------o--|
BD -o--------o--|--o-o--o--o--|

CC -X--X--X--X--|-X--X--X--X--|
SD -------o--o--|-o--o--o--o--|
BD -o--------o--|----o-o---o--|

CC -X--X--X--X--|-X--X--X--X--|
SD -------o-o---|-o--o--o--o--|
BD -o-----o-----|----------o--|
TT ----------o-o|----o-o------|

CC -X--X--X--X--|-X--X--X--X--|
SD -------o-----|-o-----o-----|
BD -o-----o--o--|-------o-----|

TT -o-o-o-o-o-o-o-o-|-o-o-o-o-o-------|
FT -o-o-o-o-o-o-o-o-|-o-o-o-o-o-------|


CC -X-----------------------|------------------------|
HH ----x--x--x--x--x--x--x--|-x--x--x--x--x--x--x--x-|
SD -------o-----------o-----|-------o-----------o----|
BD -o-----------o-----------|-o-----------o--------o-|

CC -------X-----------------|------------------------|
HH -x--x-----x--x--x--x--x--|-x--x--x--x--x--x--x--x-|
SD -------o-----------o-----|-------o-----------o----|
BD -o-----------o-----------|-o-----------o--------o-|

CC -X--X-----X-----X------X-|---X---------X----------|
HH -------------------------|------------------------|
SD -------o-----------o-----|----------------------o-|
BD -o--o-----o-----o------o-|---o---------o----------|
TT -------------------------|-------o--o-------------|
FT -------------------------|-------------o--o--o----|


(VERSE) - ("come clean...")

CC -X-----------------X-----|-------------------X----|
HH ----x--x--x--x--x-----x--|-x--x--x--x--x--x-----x-|
SD -------o-----------o-----|-------o-----------o----|
BD -o-----------o-----------|-o-----------o----------|

CC -X-----------------X-----|-------------------X----|
HH ----x--x--x--x--x-----x--|-x--x--x--x--x--x-----x-|
SD -------o-----------o-----|-------o-----------o----|
BD -o-----------o-----------|-o-----------o----------|

CC -X-----------------X-----|-------------------X----|
HH ----x--x--x--x--x-----x--|-x--x--x--x--x--x-----x-|
SD -------o-----------o-----|-------o-----------o----|
BD -o-----------o-----------|-o-----------o----------|

CC -X-----------------X-----|------------------------|
HH ----x--x--x--x--x-----x--|-x--x--x--x-------------|
SD -------o-----------o-----|-------o-----o----------|
BD -o-----------o-----------|-o--o-----o-----o-------|
TT -------------------------|-------------------o----|
FT -------------------------|-------------------o----|


PRECHORUS

CC -X--X--X--X--|-X--X--X--X--|
SD -------o-----|----------o--|
BD -o--------o--|-o--o--o--o--|

CC -X--X--X--X--|-X--X--X--X--|
SD -------o-----|----------o--|
BD -o--------o--|-o--o--o-o---|


(CHORUS) - ("spin the noose again...")

SD -oo--oo-o---oo-|

CC -X----------------------|
HH ----x--x--x--x--x--x--x-|
SD -------o-----------o----|
BD -o-----------o--o-------|

SD -oo--oo--o-----|
TT ---oo--oo--o-o-|


CC -X----------------------|
HH ----x--x--x--x--x--x--x-|
SD -------o-----oo---oo-o--|
BD -o----------------------|

CC -X----------X--X-----|
SD ----ooooooo--------o-|
BD -o----------o--o--o--|

SD ---------------o--|
TT ---------o--o-----|
FT ---------o--o-----|


CC -X-----------------------|------------------------|
HH ----x--x--x--x--x--x--x--|-x--x--x--x--x--x--x--x-|
SD -------o-----------o-----|-------o-----------o----|
BD -o-----------o-----------|-o-----------o--------o-|

CC -X-----------------------|------------------------|
HH ----x--x--x--x--x--x--x--|-x--x--x--x--x--x--x--x-|
SD -------o-----------o-----|-------o-----------o----|
BD -o-----------o-----------|-o-----------o--------o-|

CC -------X-----------------|------------------------|
HH -x--x-----x--x--x--x--x--|-x--x--x--x--x--x--x--x-|
SD -------o-----------o-----|-------o-----------o----|
BD -o-----------o-----------|-o-----------o--------o-|


CC -X--X-----X-----X------X-|---X------------------|
HH -------------------------|----------------------|
SD -------o-----------o-----|-----oooo-------oooo--|
BD -o--o-----o-----o------o-|---o------------------|
TT -------------------------|-----------o-o--------|
FT -------------------------|----------------------|


REPEAT VERSE, AND PRECHORUS


(2ND CHORUS)

(CHORUS) - ("spin the noose again...")

SD -oo--oo-o---oo-|

CC -X----------------------|
HH ----x--x--x--x--x--x--x-|
SD -------o-----------o----|
BD -o-----------o--o-------|

SD -oo--oo--o-----|
TT ---oo--oo--o-o-|


CC -X----------------------|
HH ----x--x--x--x--x--x--x-|
SD -------o-----oo---oo-o--|
BD -o----------------------|

CC -X----------X--X-----|
SD ----ooooooo--------o-|
BD -o----------o--o--o--|

SD ---------------o--|
TT ---------o--o-----|
FT ---------o--o-----|


CC -X-----------------------|------------------------|
HH ----x--x--x--x--x--x--x--|-x--x--x--x--x--x--x--x-|
SD -------o-----------o-----|-------o-----------o----|
BD -o-----------o-----------|-o-----------o----------|

CC -X-----------------------|------------------------|
HH ----x--x--x--x--x--x--x--|-x--x--x--x--x--x--x--x-|
SD -------o-----------o-----|-------o-----------o----|
BD -o-----------o-----------|-o-----------o----------|


("on the veil, stand revealed...")


CC -X--------------------|---------------------|
HH ------x----x----x-----|-x----x----x----x----|
SD ------o---------o-----|------o---------o----|
BD -oooo-oooo-oooo-oooo--|-oooo-oooo-oooo-oooo-|

CC -X--------------------|---------------------|
HH ------x----x----x-----|-x----x----x----x----|
SD -o----o----o----o-----|-o----o----o----o----|
BD -oooo-oooo-oooo-oooo--|-oooo-oooo-oooo-oooo-|

SD -----------------|---------o-------|
TT -o-o-o-o-o-o-o-o-|-o-o-o-o---------|
FT -o-o-o-o-o-o-o-o-|-o-o-o-o-o-------|


(GUITAR SOLO)


CC -X-----------------------|------------------------| - PLAY 5 TIMES
HH ----x--x--x--x--x--x--x--|-x--x--x--x--x--x--x--x-|
SD -------o-----------o-----|-------o-----------o----|
BD -o--o-----o--o--o-----o--|----o-----o--o--o-------|


CC -X-----------------------|------------------------|
HH ----x--x--x--x--x--x--x--|-x--x--x--x--x--x-------|
SD -------o-----------o-----|-------o-----o----------|
BD -o--o-----o--o--o-----o--|----o-----o-----o-------|
TT -------------------------|-------------------o----|
FT -------------------------|-------------------o----|

CC -X--X--X--X--|-X--X--X--X--|
SD -------o-----|----------o--|
BD -o----o-----o|--o-o--o-o---|


CC -X--X--X--X--|-X--X--X--X--|
SD -------o-----|----------o--|
BD -o----o-----o|--o-o--o-o---|

CC -X--X--X--X--|-X--X--X--X--|
SD -------o-----|----------o--|
BD -o----------o|--o-o--o-o---|

CC -X--X--X--X--|-X--X--X--X--|
SD -------o-o---|-o-o---o-o---|
BD -o----------o|----o-o---o--|

CC -X--X--X--X--|-X--X--X--X--|
SD -------o-o---|-o-o---o-o---|
BD -o----o------|----------o--|
TT ----------o-o|----o-o------|

CC -X--X--X--X--|-X--X--X--X--|
SD -------o-----|-o-----o-----|
BD -o----o-----o|------o------|

TT -o-o-o-o-o-o-o-o-|-o-o-o-o-o-------|
FT -o-o-o-o-o-o-o-o-|-o-o-o-o-o-------|


REPEAT CHORUS AGAIN (AND DOUBLE-BASS PART)

SD -----------------|---------o---o---|
BD -----------------|-----------o-----|
TT -o-o-o-o-o-o-o-o-|-o-o-o-o-o---o---|
FT -o-o-o-o-o-o-o-o-|-o-o-o-o---------|


CC -X-----------------------|------------------------|
HH ----x--x--x--x--x--x--x--|-x--x--x--x--x--x--x----|
SD -------o-----------o-----|-------o-----------o----|
BD -o-----------o-----------|-o-----------o--o-------|

CC -X---B-A-D--S-E-E-D-------|
BD -o---B-A-D--S-E-E-D-------| - (coughing...)
 
B

badem

Guest
Ynt: Gitar Akor Ve Tabları (Yabancı Şarkılar)

Metallica - Bleeding Me(tab)

tune all guitars down 1&2 step
1a)
Db-------5-----------------5----------5------------------
Ab----&7---5-7-----7-----5---5-----&7---5-7-----7-----7--
Eb--0------------0---0-5---------0------------0---0-5---3
intro undistorted w& flange or phaser

1b) cont. from a
Db-------5-----------------5----------5----------------------
Ab----&7---5-7-----7-----5---5-----&7---5-7-----7-----7---5--
Eb--0------------0---0-5---------0------------0---0-5---3---2
a and b are the basic pattern, but there are variations from here

1c)
eb--0--0--0-0-0
Bb--8--8--8-7-8
Gb--9--9--9-9-9
Db-------------
Ab-------------
Eb-------------
Lead intro

1d)
eb--------12----0-----------12
Bb--------12----8-7---------12
Gb-----13-------9--------13---
Db--14----------------14------
Ab----------------------------
Eb----------------------------
Lead verse
lightly mute notes


2a)
Db--9-9--9-9---7-7--7-7---7-7--7-7---9-9--9-9
Ab--7-7--7-7---5-5--5-5---5-5--5-5---7-7--7-7
Eb-------------------------------------------

2b) continued
Db--9-9--9-9---7-7--7-7---7-7--7-7---------------
Ab--7-7--7-7---5-5--5-5---5-5--5-5---7-7-7-------
Eb-----------------------------------5-5-5--0-3~0
distorted
Ohhh...

2c) ^
Gb--------12~~~--7-------7------------
Db-----12------5---7~~~5---7~~~7-5----
Ab--14-----------------------------7~~
Eb------------------------------------
lead


3)
Db--9-9-9--7-7-7--7-7-7-----------
Ab--7-7-7--5-5-5--5-5-5--7-7-7---- repeat
Eb-----------------------5-5-5--3~
Caught under wheels roll


4a)
eb-----------------------------------------------------
Bb-----------------------------------------------------
Gb--&9~~12-11-12-9~~~12-11-12-9~~~12-11-12&14-11-12-9~~ twice, but second time end on 14
Db----------------------------------------------------- and slide up to 16 then start riff 4b)
Ab-----------------------------------------------------
Eb-----------------------------------------------------

4b) continued
eb--12~~15-14-15-12~~15-14-15-12~~15-14-15&17-14-15-12~
Bb----------------------------------------------------- twice, but second time end on 17
Gb----------------------------------------------------- and slide once more up to 19.
Db-----------------------------------------------------
Ab-----------------------------------------------------
Eb-----------------------------------------------------
clean lead interlude


5)
eb-------------------------------
Bb-------------------------------
Gb----------------------------5-4
Db--------------------------5----
Ab--7--7-7--7-7-7--7-7-7--7------
Eb--0--0-0--0-0-0--0-0-0---------
pm.. .... ....
Left channel
This and riff 3 go through the entire solo also except for one part below.


6)
Db--4-4-4--5-2
Ab--2-2-2--3-0 twice
Eb------------

Then they play riff 1 distorted after the solo and that's pretty much it.

------------------------------
solo by: Jake Horbol

E||---------------------|--------------------|--------------------|
B||--5~-----------8-----|--10~---------------|--12~---------------|
G||--7b-----------10b---|--12b---------------|--14b---------------|
D||---------------------|--------------------|--------------------|
A||---------------------|--------------------|--------------------|
E||---------------------|--------------------|--------------------|



--12---12---12--12~-------|------------------------------------|
--15r--15b--15b-15b-------|------------------------------------|
--------------------------|--------------12-12---------12------|
--------------------------|--------------12-12---14~-------12--|
--------------------------|--12-12-14-14-----------------------|
--------------------------|------------------------------------|



--------------------------------|-----------------------------|
--------------------------------|-----------------------------|
----------------14--12----------|--x--x-x---------------------|
--12h-14--14~-----------14--12--|--x--x-x-12----14----14--12--|
--------------------------------|-----------------------------|
--------------------------------|-----------------------------|



--------------------------|----------------------------|
--------------------------|----------------------------|
--------------------------|--x--x--------------12------|
----14--14--14--------2~--|--x--x--12b---14----14--12~-|
--------------------------|----------------------------|
----------------3b--------|----------------------------|



--------------------------|--------------------------------|
--------------14b---------|----------x--14b---------x--14b-|
--------------14b---------|--12------x--14b-12------x--14b-|
----14--14~---------------|-----14~------------14~---------|
--------------------12b---|--------------------------------|
--------------------------|--------------------------------|




----------------------------------|--15p12----12------------------------------
--12------------------------------|--------15----15p12----12------------------
--12------------------------------|--------------------14----14-12----12-14r--
------14--12------12h14~--12------|--------------------------------14---------
--------------14--------------14--|-------------------------------------------
----------------------------------|-------------------------------------------



---------------------------------------|
---------------------------------------|
---14-12----12-14-12-------12----------|
---------14----------14-12-----14~-----|
---------------------------------------|
---------------------------------------|



--12h15p12----12-------12-----------12-------|
-----------15----15b------15-12-15b----15p12-|
---------------------------------------------|
---------------------------------------------|
---------------------------------------------|
---------------------------------------------|



-----12-------------------------------------------|
--15b---15p12----12-15p12----12-15p12----12-15p12-|
--------------14b---------14b---------14b---------|
--------------------------------------------------|
--------------------------------------------------|
--------------------------------------------------|



--------------------------------------------------------------------|
-----12-15p12----12h15p12----12h15p12-15p12----12h15p12----12h15p12-|
--14----------14----------14----------------14----------14----------|
--------------------------------------------------------------------|
--------------------------------------------------------------------|
--------------------------------------------------------------------|



-----------------------------------------------|
-----12h15p12-12-12h15p12----15p12-15b---15b---|
--14----------------------14-------------------|
-----------------------------------------------|
-----------------------------------------------|
-----------------------------------------------|



--------------------------15-15-15-15-------------|
--12-12-12-12-14-14-14-14-15-15-15-15-14-14-14-14-|
--12-12-12-12-14-14-14-14-15-15-15-15-14-14-14-14-|
--------------------------------------------------|
--------------------------------------------------|
--------------------------------------------------|



------------------------------|--------------------------------|
--12----14--14--15--14--12----|----15b-----15-12---------------|
--12----14--14--15--14--12----|------------------14-12---------|
------------------------------|------------------------14-12~--|
------------------------------|--------------------------------|
------------------------------|--------------------------------|



--------------------------------|------------------------|
----15b-----15-12---------------|----15b-----15b-----15b-|
------------------14-12---------|------------------------|
------------------------14-12~--|------------------------|
--------------------------------|------------------------|
--------------------------------|------------------------|



----------------------------|-----------------------------|
----0--15--0--12------15b---|-----------------------------|
----0------0--12------------|-------------------12--12&14-|
------------------14--------|--7h9----9----9--------------|
----------------------------|--7------7----7----10--10&12-|
----------------------------|-----------------------------|



------------------------------|--------------------------------|
------------------------------|------------14--14r-------------|
----12--12--12&14---12--11----|--------12--14--14r---14p12-----|
------------------------------|----14----------------------14--|
----10--10--10&12---10--9-----|--------------------------------|
------------------------------|--------------------------------|



------------------------------------|--------------------------|
----------15--12--------------------|--------------------------|
--12--14b---------14r-14p-12--------|------9----9----12--12&14-|
------------------------------14~---|--------------------------|
------------------------------------|------7----7----10--10&12-|
------------------------------------|--------------------------|



----------------------------|--------------------------------|
----------------------------|--------------------------------|
----12----12&14---12--11~---|----12--12&-14--14&-16----------|
----------------------------|------------------------12--14--|
----10----10&12---10--9~----|----10--10&-12--12&-14----------|
----------------------------|--------------------------------|



----------------------------------|--------------------||
--12--14--14b--14r14p12-----------|--12----------------||
--12--14--14b--14r14p12-----14b---|--12----------------||
------------------------14--------|--------------------||
----------------------------------|--------------------||
----------------------------------|--------------------||
 
B

badem

Guest
Ynt: Gitar Akor Ve Tabları (Yabancı Şarkılar)

Metallica - Blitzkrieg(tab)


----|----------------|----------------|----------------|--------|
----|----------------|----------------|----------------|--------|
----|----------------|----------------|----------------|--------|
7---|7s9-----9---7s9-|----9---7s9-----|----------------|----7---|
5---|5s7-----7---5s7-|----7---5s7-----|9---10------7---|----5---|
----|----0-0---0-----|0-0---0-----0-0-|7---8---0-0-5---|0-0-----|

----------------|----------------|----------------|--------|
----------------|----------------|----------------|--------| Repeat
----------------|----------------|----------------|--------| this
7s9-----9---7s9-|----9---7s9-----|----------------|----7---| line
5s7-----7---5s7-|----7---5s7-----|9---10------7---|----5---| 4 times
----0-0---0-----|0-0---0-----0-0-|7---8---0-0-5---|0-0-----|

----------------|----------------|----------------|--------|
----------------|----------------|----------------|--------|
----------------|----------------|----------------|--------|
7s9-----9---7s9-|----9---7s9-----|----------------|--------|
5s7-----7---5s7-|----7---5s7-----|9---10------7---|--------|
----0-0---0-----|0-0---0-----0-0-|7---8---0-0-5---|0-0-12ss|

$
----------------|----------------|
----------------|----------------| Repeat
----------------|----------------| this
----------------|----------------| line
----------------|----------------| 3 times
0-0-2-0-0-3-0-0-|2-0-0-3-0-0-2s3-|

----------------|----------------|
----------------|----------------|
----------------|----------------|
----------------|------------5s4-|
----------------|------------3s2-|
0-0-2-0-0-3-0-0-|2-0-0-3-0-0-----|

1.Let us have peace, let us have life, let us escape the cruel night
2.Save us from fate, save us from hate, save ourselves before it's too late
----------------|----------------|----------------|----------------|
----------------|----------------|----------------|----------------|
----------------|----------------|----------------|----------------|
----------------|----------------|----------------|------------5s4-|
----------------|----------------|----------------|------------3s2-|
0-0-2-0-0-3-0-0-|2-0-0-3-0-0-2s3-|0-0-2-0-0-3-0-0-|2-0-0-3-0-0-----|

Let us have time, let the sun shine, let us beware the deadly sign
Come to our need, hear our plea, save ourselves before the earth bleeds
----------------|----------------|----------------|----------------|
----------------|----------------|----------------|----------------|
----------------|----------------|----------------|----------------|
----------------|----------------|----------------|------------5s4-|
----------------|----------------|----------------|------------3s2-|
0-0-2-0-0-3-0-0-|2-0-0-3-0-0-2s3-|0-0-2-0-0-3-0-0-|2-0-0-3-0-0-----|

The day is coming Armageddon's near
The day is dawning The time is near
----------------|----------------|----------------|----------------|
----------------|----------------|----------------|----------------|
----------------|----------------|----------------|----------------|
2---2---x-5s4-5-|--------4s5-4---|2---2---x-5s4-5-|--------4s5-7---|
0---0---x-3s2-3-|----3-3-2s3-2---|0---0---x-3s2-3-|----3-3-2s3-5---|
----------------|----------------|----------------|----------------|

Inferno coming Can we survive the blitz
Aliens coming Can we survive the blitz
----------------|----------------|----------------|----------------|
----------------|----------------|----------------|----------------|
----------------|----------------|----------------|----------------|
2---2---x-5s4-5-|--------4s5-4---|2---2---x-5s4-5-|--------4s5-7---|
0---0---x-3s2-3-|----3-3-2s3-2---|0---0---x-3s2-3-|----3-3-2s3-5---|
----------------|----------------|----------------|----------------|

krieg
krieg
----------------|----------------|----------------|--------| 1st time 2nd time
----------------|----------------|----------------|--------| Repeat Repeat
----------------|----------------|----------------|--------| this 2 times
7s9-----9---7s9-|----9---7s9-----|----------------|----7---| line and skip
5s7-----7---5s7-|----7---5s7-----|9---10------7---|----5---| 3 times to CODA
----0-0---0-----|0-0---0-----0-0-|7---8---0-0-5---|0-0-----|

----------------|----------------|----------------|--------|
----------------|----------------|----------------|--------| Goto
----------------|----------------|----------------|--------| $
7s9-----9---7s9-|----9---7s9-----|----------------|--------| al CODA
5s7-----7---5s7-|----7---5s7-----|9---10------7---|----9---|
----0-0---0-----|0-0---0-----0-0-|7---8---0-0-5---|0-0-7ss-|

CODA (solo)

For the solo the backing guitar plays power chords which are indicated
above the solo line in single line "tab". Simultaneous guitars have joined
bars. The timing is now different in order to be able to transcribe it
correctly. 8ths = 4'-'s.
Triads are indicated like this: ___3___ or ___ ___
3


F#--F#--F#--F#--F#--F#--F#--F#--|F#--F#--F#--F#--F#--F#--F#--F#--|
| |
--------------------------------|------------------------___3___-|
--------------------------------|----------------___3___-2-----2-|
--------------------------------|--------2-----2-4--2--4----4----|
------------------------2-----2-|4---2-4-----4-------------------|
--------------2-4---2-4-----4---|--------------------------------|
2-2-2-2-5-2-5-----5-------------|--------------------------------|

F#--F#--F#--F#--F#--F#--F#--F#--|F#--F#--F#--F#--F#--F#--F#--F#--|
| |
--------2-----2-5p2-----------5-|2-------------------------------|
5-2-5-----5-2-------5-2-2-2-2---|2-------------------------------|
----------------------2-2-2-2---|----4---2-------2---4^------2---|
--------------------------------|------------5-------------------|
--------------------------------|--------------------------------|
--------------------------------|--------------------------------|

F#--F#--F#--F#--F#--F#--F#--F#--|F#--F#--F#--F#--F#--F#--F#--F#--|
| |
--------------------------------|----------------_3_-----___3___-|
5^--------r-^-----------5---3---|2-------2---3---232-----2--4----|
--------------------------------|----4---------------4------4--2-|
--------------------------------|--------------------------------|
--------------------------------|--------------------------------|
--------------------------------|--------------------------------|

F#--F#--F#--F#--F#--F#--F#--F#--|F#--F#--F#--F#--F#--F#--F#--F#--|
| |
--------------------------------|------------------------------4-|
___3___-___3___-----------------|----------------------------7---|
4p-2----2-----------------------|--------------------------------|
------4----4--2-4p2-----2---4---|--------------------------------|
--------------------4-----------|4p2-----2---4---2---------------|
--------------------------------|----4-------------------2-------|

G#--G#--G#--G#--G#--G#--G#--G#--|G#--G#--G#--G#--G#--G#--G#--G#--|
| |
7p-4----4-------___3___-___3___-|--------------------------------|
------7----7--4-7p-4----4-------|___3___-___3___-----------------|
___ ___-___ ___-------6----6--4-|6p-4----4-------___3___-___3___-|
---3-------3--------------------|------6----6--4-6p-4----4-------|
--------------------------------|----------------------6----6--4-|
--------------------------------|--------------------------------|

G#--G#--G#--G#--G#--G#--G#--G#--|G#--G#--G#--G#--G#--G#--G#--G#--|
| |
--------------------------------|--------------------------------|
--------------------------------|--------------------------------|
--------------------------------|--------4-------------------4---|
___3___-___3___-----------------|4-h-6-------6-------6p4---------|
6p-4----4-----------4-s-6-------|------------------------6-------|
------7----7--4-7---------------|--------------------------------|

G#--G#--G#--G#--G#--G#--G#--G#--|G#--G#--G#--G#--G#--G#--G#--G#--|
| |
--------------------------------|--------------------------------|
--------------------------------|--------------------------------|
6-6-6-6-7-7-7-7s9-9-9-9-7-7-7s9-|9-9-9-9-111111111313131311111113|
--------------------------------|--------------------------------|
--------------------------------|--------------------------------|
--------------------------------|--------------------------------|

G#--G#--G#--G#--G#--G#--G#--G#--|G#--G#--G#--G#--G#--G#--G#--G#--|
| |
--------------------------------|--------------------------------|
--------------------------------|------------16--19^-------------|
131313131414141416161616141416--|1816----18--------------16-ss---|
--------------------------------|----16------------------16-ss---|
--------------------------------|--------------------------------|
--------------------------------|--------------------------------|

Bb--Bb--Bb--Bb--Bb--Bb--Bb--Bb--|Bb--Bb--Bb--Bb--Bb--Bb--Bb--Bb--|
| |
--------------------------------|--------------------------------|
--------------------------------|--------------------------------|
--------------------------------|--------------------------------|
--------------------------------|----------------6-------6---7---|
----------------4-------4---5---|----6---8-----------8-----------|
6-------6-----------6-----------|--------------------------------|

Bb--Bb--Bb--Bb--Bb--Bb--Bb--Bb--|Bb--Bb--Bb--Bb--Bb--Bb--Bb--Bb--|
| |
--------------------------------|----6-----------------------13--|
--------------------------------|--------9p6-----6-------14------|
----------------6-------6---8^--|------------8-----6-------------|
----8---8-----------8-----------|--------------------8-----------|
--------------------------------|--------------------------------|
--------------------------------|--------------------------------|

Bb--Bb--Bb--Bb--Bb--Bb--Bb--Bb--|Bb--Bb--Bb--Bb--Bb--Bb--Bb--Bb--|
| |
18-13---------------------------|--------------------------------|
------14--------14-ss-----------|___3___-------------------------|
___-____15--------------14-ss---|8p-6----___3___-----------------|
---3----------------------------|------8-6--8--------------------|
--------------------------------|--------------6-----------------|
--------------------------------|----------------9---------------|

Bb--Bb--Bb--Bb--Bb--Bb--Bb--Bb--|Bb--Bb--Bb--Bb--Bb--Bb--Bb------|
| |
--------------------------------|--------------------------------|
--------------------------------|--------------------------------|
---------------------------[6]--|--------^---r-----------^--ss---|
--------------------6---8-------|--------------------------------|
--------4---6---8---------------|--------------------------------|
4---6---------------------------|--------------------------------|

Now comes the tricky part where you have to use delay effect,
harmonics and a lot of tremolo part. I'll just notate only where
you should fret. Harmonics = <12>. From now on to the end of the song
timing is again 8th = 2'-'s. Backing guitar continues. Tempo slows down.

E---------------|C---------------|E---------------|C---------------|
| | | |
----------------|-<12>-----------|----------x-x-x-|----------------|
----------------|----------------|----------------|----------------|
9---------------|--------------9-|----------------|<12>------------|
----------------|----------------|----------------|----------------|
----------------|----------------|----------------|----------------|
----------------|----------------|----------------|----------------|

E---------------|C---------------|E---------------|C---------------|
| | | |
----------------|----------------|----------------|----------------|
----------------|----------------|----------------|----------------|
9----------<12>-|----------------|-<5>------------|<5>---------0---|
----------------|----------------|----------------|----------------|
----------------|----------------|----------------|----------------|
----------------|----------------|----------------|----------------|

Back to the original tempo, and for a while we have three guitars
playing at the same time. Backing guitar plays single notes.

E-E-E-E-E-E-E-E-|E-E-E-E-E-E-E-E-|C-C-C-C-C-C-C-C-|C-C-B-B-A-A-G-G-|
| | | |
121212--12121212|12--12121212--12|121212--12121212|12--12121212--12|
121212--12121212|12--12121212--12|121212--12121212|12--12121212--12|
9-9-9---9-9-9-9-|9---9-9-9-9---9-|9-9-9---9-9-9-9-|9---9-9-9-9---9-|
----------------|----------------|----------------|----------------| Repeat
----------------|----------------|----------------|----------------| all
----------------|----------------|----------------|----------------| three
| | | | guitars
7-----10----7---|--10----7---10--|7-----10----1212|--10----7---10--| 4 times
----------------|----------------|----------------|----------------|
4-----7-----4---|--7-----4---7---|4-----7-----9-9-|--7-----4---7---|
----------------|----------------|----------------|----------------|
----------------|----------------|----------------|----------------|
----------------|----------------|----------------|----------------|

----------------|----------------|----------------|----------------|
----------------|----------------|--------------5-|----6---6-5-----| Repeat
----------------|----------------|--------------5-|----5---5-5-----| this
9---11--119---9-|----11--119---5-|5-5-7---3-2---5-|----5---5-5-----| line
7---7---7-7---7-|----7---7-7---3-|3-3-3-x-3-3-3-3-|3-3-3-3-3-3-3-3-| 2 times
0---0-0-0-0-0-0-|0-0-0-0-0-0-0---|----------------|----------------|

----------------|----------------|----------------|----------------|
----------------|----3---3-2-----|----------------|----------------|
2---------------|----2---2-2-----|----------------|----------------|
2---0-2-0-2---2-|----2---2-2-----|----------------|----------------|
0-----0---0-0-0-|0-0---0-----0---|----------------|--------3p2-----|
----------------|--------------0-|3-----2-----3---|--0-2-3-----3-2-|

----------------|----------------|----------------|----------------|
----------------|----------------|----------------|----------------| Repeat
----------------|----------------|----------------|----------------| this
----------------|----------------|----------------|----------------| line
----------------|----------------|----------------|--------3p2-----| 2 times
0-0-2-0-2-3-0-0-|2-0-0-3-0-0-2-3-|3-----2-----3---|--0-2-3-----3-2-|

---------------19-19---19-19-24-24-24---24-19---------------------|
------------------------------------------------------------------|
------------------------------------------------------------------|
------------------------------------------------------------------|
2-----------------------------------------------------------------|
0--------------------------------------------------x-ss-----------|
 
B

badem

Guest
Ynt: Gitar Akor Ve Tabları (Yabancı Şarkılar)

Metallica - Boat On The River

Am C
Take me back to my boat on the river
G E
I need to go down, I need to come down
Am C
Take me back to my boat on the river
G Am
And I won't cry out anymore
Am C
Time stands still as I gaze in her waters
G E
She eases me down, touching me gently
Am C
With the waters that flow past my boat on the river
G Am
So I don't cry out anymore


G
Oh the river is wide
E Am C
The river it touches my life like the waves on the sand
G Am
And all roads lead to Tranquillity Base
G E
Where the frown on my face disappears
Am C
Take me down to my boat on the river
G Am
And I won't cry out anymore


G
Oh the river is deep
E Am C
The river it touches my life like the waves on the sand
G Am
And all roads lead to Tranquillity Base
G E
Where the frown on my face disappears
Am C
Take me down to my boat on the river
G E
I need to go down, won't you let me go down
Am C
Take me back to my boat on the river
G Am
And I won't cry out anymore
G Am
And I won't cry out anymore
G Am
And I won't cry out anymore...
 
B

badem

Guest
Ynt: Gitar Akor Ve Tabları (Yabancı Şarkılar)

Metallica - Crash Course In Brain Surgery(tab)

Intro
|---------|--------------------------|-----------------------|
|---------|--------------------------|-----------------------|
|---------|--------------------------|-----------------------|
|---------|--------------------------|-----------------------|
|---------|--------------------3--4--|--5--------------------|
|---------|--0--1--2--5--6--7--------|-----5--6--7--5--6--7--|

|--------------------------|-----------------------|-------------|
|--------------------------|-----------------------|-------------|
|--------------------------|--------------------2--|-------------|
|--------------------------|--------------------2--|-------------|
|--------------------3--4--|--5-----------------0--|-------------|
|--0--1--2--5--6--7--------|-----5--6--7--5--6-----|-------------|



(x4)
|---------------||-------------------------------------|
|---------------||-------------------------------------|
|---------------||*-----------------------------------*|
|---------------||*--h--------------------------------*|
|---------------||--&2--------2--------2-----------2---|
|---------------||---2&-------2--------2-----------2---|


|-----------------|-----------------------|
|-----------------|-----------------------|
|-----------------|-----------------------|
|--2--0-----------|-----------------------|
|-----------2--0--|------~~~-----0--1-----|
|-----------------|--5--2--------0--1-----|


(x4)
||--------------------------------------||-----------------|
||--------------------------------------||-----------------|
||*------------------------------------*||-----------------|
||*--h---------------------------------*||--2--0-----------|
||--&2--------2--------2------------2---||-----------2--0--|
||---2&-------2--------2------------2---||-----------------|


|-----------------------------------|------------------------------------|
|-----------------------------------|------------------------------------|
|-----------------------------------|------------------------------------|
|-----------------------------------|------------------------------------|
|------------~~~--------0-----------|--1---------------------------------|
|--------5--2-----------0-----------|--1-----------------------x--x--17--|


(x4)
||----------------------------------||
||----------------------------------||
||*--------------------------------*||
||*--h-----------------------------*||
||--&2--------2--------2--------2---||
||---2&-------2--------2--------2---||


Start of verses 1 & 2 (see below)
|----------||----------------------------------------|
|----------||----------------------------------------|
|----------||*---------------------------------------|
|----------||*--h------------------------------------|
|----------||--&2------------2--------2--------2-----|
|----------||---2&-----------2--------2--------2-----|


|--------------------------------|----------------------------------|
|--------------------------------|----------------------------------|
|--------------------------------|----------------------------------|
|--h-----------------------------|--h-------------------------------|
|-&2--------2--------2--------2--|-&2--------2----------2--------2--|
|--2&-------2--------2--------2--|--2&-------2----------2--------2--|



|--------------------------------|----------------------------------|
|--------------------------------|----------------------------------|
|--------------------------------|----------------------------------|
|--h-----------------------------|--h-------------------------------|
|-&2--------2--------2--------2--|-&2--------2--------2--------2----|
|--2&-------2--------2--------2--|--2&-------2--------2--------2----|



|--------------------------------|--------------------------------|
|--------------------------------|--------------------------------|
|--------------------------------|--------------------------------|
|--h-----------------------------|--h-----------------------------|
|-&2--------2--------2--------2--|-&2--------2--------2--------2--|
|--2&-------2--------2--------2--|--2&-------2--------2--------2--|


|--------------------------------|----------------------------------|
|--------------------------------|----------------------------------|
|--------------------------------|----------------------------------|
|--h-----------------------------|--h-------------------------------|
|-&2--------2--------2--------2--|-&2--------2--------2----------2--|
|--2&-------2--------2--------2--|--2&-------2--------2----------2--|



|--------------------------------|--------------------------------|
|--------------------------------|--------------------------------|
|--------------------------------|--------------------------------|
|--h-----------------------------|--h-----------------------------|
|-&2--------2--------2--------2--|-&2--------2--------2--------2--|
|--2&-------2--------2--------2--|--2&-------2--------2--------2--|


|--------------------------------|
|--------------------------------|
|--------------------------------|
|--h-----------------------------|
|-&2--------2--------2--------2--|
|--2&-------2--------2--------2--|



|-------------------------------------|
|-------------------------------------|
|-------------------------------------|
|-----h-------------------------------|
|---3-&-5--------5--------5--------5--|
|---3-&-5--------5--------5--------5--|


|-------------------------------------|--------------------------------------|
|-------------------------------------|--------------------------------------|
|-------------------------------------|--------------------------------------|
|-----h-------------------------------|------h-------------------------------|
|---3-&-5--------5--------5--------5--|----3-&-5--------5--------5--------5--|
|---3-&-5--------5--------5--------5--|----3-&-5--------5--------5--------5--|


|-------------|-------------|------------------------------------------------|
|-------------|-------------|------------------------------------------------|
|-------------|-------------|------------------------------------------------|
|-------------|-------------|------------------------------------------------|
|--3--0-------|-------------|------------------------------------------------|
|--3--0-------|--12---------|--12---------12--------12--12--12--12-----12---|


|--------------------------------|-----------------------------------|
|--------------------------------|-----------------------------------|
|--------------------------------|-----------------------------------|
|--h-----------------------------|--h--------------------------------|
|-&2--------2--------2--------2--|-&2-----------2--------2--------2--|
|--2&-------2--------2--------2--|--2&----------2--------2--------2--|



|--------------------------------|-----------------------------------||
|--------------------------------|-----------------------------------||
|--------------------------------|----------------------------------*||
|--h-----------------------------|--h-------------------------------*||
|-&2--------2--------2--------2--|-&2--------2----------2--------2---||
|--2&-------2--------2--------2--|--2&-------2----------2--------2---||


Interlude
|-----------------------|-----------------------|
|-----------------------|-----------------------|
|-----------------------|-----------------------|
|-----2--0--------------|-----------------------|
|--------------2--0-----|---------~~~-----0--1--|
|-----------------------|-----5--2--------0--1--|


(x4)
||--------------------------------------|
||--------------------------------------|
||*------------------------------------*|
||*--h---------------------------------*|
||--&2------------2--------2--------2---|
||---2&-----------2--------2--------2---|


|--------------------------|--------------|-----------------|--------------|
|--------------------------|--------------|-----------------|--------------|
|--------------------------|--------------|-----------------|--------------|
|--2-----0-----------------|--------------|-----------------|--------------|
|--------------2-----0-----|---------~~~--|--0--------------|--1-----------|
|--------------------------|--5-----2-----|--0--------------|--1-----------|


|--------------------|-----------------|----------------------|
|--------------------|-----------------|----------------------|
|--------------------|-----------------|----------------------|
|--------------------|-----------------|----------------------|
|--2-----------------|-----------------|--2-------------------|
|--2-----------------|-----------------|--2-------------------|



|-----------------|--------------------|-----------------|
|-----------------|--------------------|-----------------|
|-----------------|--------------------|-----------------|
|-----------------|--------------------|-----------------|
|-----------------|--0-----2-----------|-----------------|
|-----------------|--0-----2-----------|-----------------|


|-------------------------|---------------|
|-------------------------|---------------|
|-------------------------|---------------|
|-------------------------|---------------|
|--2--2-------------------|--2&-----------|
|--2--2-------------------|--2&-----------|


Guitar Solo
|-------------------------------------|--------------------------------------|
|-------------------------------------|--------------------------------------|
|-------------------------------------|--------------------------------------|
|-----h-------------------------------|------h-------------------------------|
|---3-&-5--------5--------5--------5--|----3-&-5--------5--------5--------5--|
|---3-&-5--------5--------5--------5--|----3-&-5--------5--------5--------5--|

|-------------------------------------|--------------------------------------|
|-------------------------------------|--------------------------------------|
|-------------------------------------|--------------------------------------|
|-----h-------------------------------|------h-------------------------------|
|---3-&-5--------5--------5--------5--|----3-&-5--------5--------5--------5--|
|---3-&-5--------5--------5--------5--|----3-&-5--------5--------5--------5--|

|-------------------------------------|--------------------------------------|
|-------------------------------------|--------------------------------------|
|-------------------------------------|--------------------------------------|
|-----h-------------------------------|------h-------------------------------|
|---3-&-5--------5--------5--------5--|----3-&-5--------5--------5--------5--|
|---3-&-5--------5--------5--------5--|----3-&-5--------5--------5--------5--|

|-------------------------------------|--------------------------------------|
|-------------------------------------|--------------------------------------|
|-------------------------------------|--------------------------------------|
|-----h-------------------------------|------h-------------------------------|
|---3-&-5--------5--------5--------5--|----3-&-5--------5--------5--------5--|
|---3-&-5--------5--------5--------5--|----3-&-5--------5--------5--------5--|


|--------------------|--------------------|
|--------------------|--------------------|
|------~~~-----------|--------------------|
|--5--3---------~~~--|--------------------|
|-----------5--3-----|------~~~------~~~--|
|--------------------|--0--5-----0--1-----|


|--------------------------------|--------------------------------|
|--------------------------------|--------------------------------|
|--------------------------------|--------------------------------|
|--h-----------------------------|--h-----------------------------|
|-&2--------2--------2--------2--|-&2--------2--------2--------2--|
|--2&-------2--------2--------2--|--2&-------2--------2--------2--|


|--------------------------------|--------------------------------|
|--------------------------------|--------------------------------|
|--------------------------------|--------------------------------|
|--h-----------------------------|--h-----------------------------|
|-&2--------2--------2--------2--|-&2--------2--------2--------2--|
|--2&-------2--------2--------2--|--2&-------2--------2--------2--|


|--------------------------------|--------------------------------|
|--------------------------------|--------------------------------|
|--------------------------------|--------------------------------|
|--h-----------------------------|--h-----------------------------|
|-&2--------2--------2--------2--|-&2--------2--------2--------2--|
|--2&-------2--------2--------2--|--2&-------2--------2--------2--|

|--------------------------------|--------------------------------|
|--------------------------------|--------------------------------|
|--------------------------------|--------------------------------|
|--h-----------------------------|--h-----------------------------|
|-&2--------2--------2--------2--|-&2--------2--------2--------2--|
|--2&-------2--------2--------2--|--2&-------2--------2--------2--|


|-----------------------|--------------------------------|-------------------|
|-----------------------|--------------------------------|-------------------|
|-----------------------|--------------------------------|-------------------|
|-----2--0--------------|--------------------------------|-------------------|
|--------------2--0-----|---------~~~~~~--------0--------|-------------------|
|-----------------------|--5-----2--------------0--------|-------------------|


Bass Solo
||--------------------------------|
||--------------------------------|
||--------------------------------|
||--------------------------------|
||---0----------------------------|
||---0----------------------------|



|-------------------------------------|-------------------------------------|
|-------------------------------------|-------------------------------------|
|-------------------------------------|-------------------------------------|
|--------------5-------------------0--|--------------5-------------------0--|
|--5-----7-------------0-----2--------|--5-----7-------------0-----2--------|
|-------------------------------------|-------------------------------------|


Verse 3
|--------------------------------|--------------------------------|
|--------------------------------|--------------------------------|
|--------------------------------|--------------------------------|
|--h-----------------------------|--h-----------------------------|
|-&2--------2--------2--------2--|-&2--------2--------2--------2--|
|--2&-------2--------2--------2--|--2&-------2--------2--------2--|


|--------------------------------|--------------------------------|
|--------------------------------|--------------------------------|
|--------------------------------|--------------------------------|
|--h-----------------------------|--h-----------------------------|
|-&2--------2--------2--------2--|-&2--------2--------2--------2--|
|--2&-------2--------2--------2--|--2&-------2--------2--------2--|


|-----------------|--------------------|
|-----------------|--------------------|
|-----------------|--------------------|
|--2--0-----------|--------------------|
|-----------2--0--|------~~~----0---1--|
|-----------------|--5--2-------0---1--|


|--------------------------------|--------------------------------|
|--------------------------------|--------------------------------|
|--------------------------------|--------------------------------|
|--h-----------------------------|--h-----------------------------|
|-&2--------2--------2--------2--|-&2--------2--------2--------2--|
|--2&-------2--------2--------2--|--2&-------2--------2--------2--|


|-------------------------------|---------------------------------|
|-------------------------------|---------------------------------|
|-------------------------------|---------------------------------|
|----h--------------------------|---------------------------------|
|-&2-------2--------2--------2--|-0--2-------2--------2--------2--|
|--2&------2--------2--------2--|-0--2-------2--------2--------2--|


|----------------|-----------|------------|-----------|--------------------||
|----------------|-----------|------------|-----------|--------------------||
|----------------|-----------|------------|-----------|--------------------||
|--2--0----------|------~~~--|------------|-----------|--------------------||
|----------2--0--|--5--2-----|--0---------|--1--------|--2--2--------------||
|----------------|-----------|--0---------|--1--------|--2--2-------(2)---||


Verse 1
Look inside and you will see the words are cutting deep inside my brain.
Thunder burning, quickly burning.
Knife of words is driv'n me insane.
Insane!
Yeah!

Verse 2
Raven black is on my back.
He showed me how to neutralise the knife
Show to me, in surgery, the art of fighting words to conquer life.
Conquer life!
Yeah!

Verse 3
Now the wicked lance of fear is drivn' from my heady mountain brain.
Crash course in brain surgery has stopped the bloddy knife of words again.
Yeah! Yeah! Yeah!


Also when ever you come across Figure A as depicted below, it should be
replaced with Figure 1A (below)

Figure A
|-------------------------------|
|-------------------------------|
|-------------------------------|
|----h--------------------------|
|-&2-------2--------2--------2--|
|--2&------2--------2--------2--|

Figure 1A
|----------------------------------|
|----------------------------------|
|----------------------------------|
|---h------------------------------|
|-0-&-2-------2--------2--------2--|
|-0-&-2-------2--------2--------2--|

================================================================================
== TABLATURE EXPLANATION ==
================================================================================

---------- ----------
----5h8--- Hammeron ----(8)--- Ghost Note
---------- ----------
----5p8--- Pulloff ----------

---------- ----------
----5&8--- Slide Up -----x---- Dead Note
---------- ----------
----58--- Slide Down ----------

---------- ||------|| Repeat Start & End
----5~~~-- Vibrato ||*----*||
---------- ||*----*||
---------- ||------||
 
B

badem

Guest
Ynt: Gitar Akor Ve Tabları (Yabancı Şarkılar)

Loreena Mckennitt - All Souls Night

Dm G
Bonfires dot the rolling hills
F13 C G
Figures dance around and around
Dm G
To drums that pulse out echoes of darkness
F13 C G
Moving to the pagan sound.

Somewhere in a hidden memory
Images float before my eyes
Of fragrant nights of straw and of bonfires
And dancing till the next sunrise.

CHORUS:
Dm C
I can see lights in the distance
Am G Dm G
Trembling in the dark cloak of night
Dm C
Candles and lanterns are dancing, dancing
Am G Dm G
A waltz on All Souls Night.

Figures of cornstalks bend in the shadows
Held up tall as the flames leap high
The green knight holds the holly bush
To mark where the old year passes by.

CHORUS

Bonfires dot the rolling hillsides
Figures dance around and around
To drums that pulse out echoes of darkness
And moving to the pagan sound.

Standing on the bridge that crosses
The river that goes out to the sea
The wind is full of a thousand voices
They pass by the bridge and me.
 
Üst