Gitar Akor Ve Tabları (Yabancı Şarkılar)

B

badem

Guest
Ynt: Gitar Akor Ve Tabları (Yabancı Şarkılar)

Bryan Adams - Everything I do

INTRO [C] [G] [F] [G]

[C] Look into my eyes, [G] you will see [F]what you mean to

[G]me

Search your [C]heart, search your [G]soul and when you

[F]find me there, you'll [C]search no [G]more

Don't [Dm]tell me it's not worth [C]trying [Dm]for

You can't [Dm]tell me it's not worth [C]dying [Dm]for

You know it's [C&G]true, everything I [G]do, I do it [C]for you

[C] Look into your heart, [G] you will find, there's

[F]nothing there to [G]hide

Take me as I [C]am, take my [G]life, I would

[F]give it all, I would [C]sacri[G]fice

Don't [Dm]tell me it's not worth [C]fighting [Dm]for

I can't [Dm]help it, there's nothing [C]I want [Dm]more

You know it's [C&G]true, everything I [G]do, I do it [C]for you

There's [Bb]no love like [Eb]your love, and no

[Bb]other could give [F]more love

There's [C]no where unless

[G]you're there, all the [D]time, all the [G]way

[F] [C] [F] [C]
|----------|-------------------------------------------------------9------
|----------|-----------------------------------------9-9------9&11--11-11-
|-8-10-----|-8&10~--&10-8&6-3&6---6&8------6-6--8&10-----6-6--------------
|------8-8-|---------------------------6&8--------------------------------
|----------|--------------------------------------------------------------
|----------|--------------------------------------------------------------

-------------------------|
11&9&11------------------|
--------8h10--8b-8b-8b-6-| (bend the three 8's one half note each)
-------------------------|
-------------------------|
-------------------------|

Oh you can't [Dm]tell me it's not worth trying [G]for
I can't [Dm]help it there's nothing I want [G]more
[F]Yeah I would [C]fight for you, I'd [G]lie for you, walk the
[F]wire for you, yeah I'd [Fm]die for you
You know it's [C]true, everything [G]I do, [F]oh,[F6] I do it [C]for you
 
B

badem

Guest
Ynt: Gitar Akor Ve Tabları (Yabancı Şarkılar)

Bryan Adams - When Your Gone

Dm F C G
(Intro)
Dm G
i've been wandering around the house all night
C
wondering what the hell to do
Dm G C
i'm trying to concentrate but all i can think of is you
Dm G
well the phone don't ring cuz my friends ain't home
C
i'm tired of being all alone
Dm Bb GDm F C G
(Intro)
Dm G
i've been wandering around the house all night
C
wondering what the hell to do
Dm G C
i'm trying to concentrate but all i can think of is you
Dm G
well the phone don't ring cuz my friends ain't home
C
i'm tired of being all alone
Dm Bb G
got the tv on cuz the radio's playing songs that remind me of you
Dm F C G
baby when you're gone - i realize i'm in love
Dm F C G
the days go on and on - and the nights just seem so long
Dm F C G
even food don't taste that good - drink ain't doing what it should
Dm Bb G
things just feel so wrong - baby when you're gone
Dm G
i've been driving up and down these streets
C
trying to find somewhere to go
Dm G C
ya i'm lookin' for a familiar face but there's no one i know
Dm G
this is torture - this is pain
C
it feels like i'm gonna go insane
Dm Bb G
i hope you're coming back real soon - cuz i don't know what to do
Chorus (same as above)
Solo (The rhytm during the solo is same as for the verse)
Chorus, followed by:
(G) Dm Bb
oh, baby when you're gone
F
yeah, baby when you're gone - oh

got the tv on cuz the radio's playing songs that remind me of you
Dm F C G
baby when you're gone - i realize i'm in love
Dm F C G
the days go on and on - and the nights just seem so long
Dm F C G
even food don't taste that good - drink ain't doing what it should
Dm Bb G
things just feel so wrong - baby when you're gone
Dm G
i've been driving up and down these streets
C
trying to find somewhere to go
Dm G C
ya i'm lookin' for a familiar face but there's no one i know
Dm G
this is torture - this is pain
C
it feels like i'm gonna go insane
Dm Bb G
i hope you're coming back real soon - cuz i don't know what to do
Chorus (same as above)
Solo (The rhytm during the solo is same as for the verse)
Chorus, followed by:
(G) Dm Bb
oh, baby when you're gone
F
yeah, baby when you're gone - oh
 
B

badem

Guest
Ynt: Gitar Akor Ve Tabları (Yabancı Şarkılar)

Maroon 5 - SheWill Be Loved

Bm- X2443X
A- X02220
D5- X0023X
G5- 3X003X

The reason for the mutes on most of the chords are because that's how the song
is played.

Bm A
Beauty queen of only eighteen
Bm A
She had some trouble with herself
Bm A
He was always there to help her
Bm A
She always belonged to someone else

Bm A
I drove for miles and miles
Bm A
And wound up at your door
Bm A
I've had you so many times but
Bm A
somehow I want more

D5 A
I don't mind spending everyday
Bm G5
Out on your corner in the pouring rain
D5 A
Look for the girl with the broken smile
Bm G5
Ask her if she wants to stay awhile
D5 A
And she will be loved
Bm G
She will be loved
(Repeat same rythm)

Tap on my window knock on my door
I want to make you feel beautiful
I know I tend to get so insecure
It doesn't matter anymore

It's not always rainbows and butterflies
It's compromise that moves us along
My heart is full and my door's always open
You can come anytime you want

I don't mind spending everyday
Out on your corner in the pouring rain
Look for the girl with the broken smile
Ask her if she wants to stay awhile
And she will be loved
She will be loved

I know where you hide
Alone in your car
Know all of the things that make you who you are
I know that goodbye means nothing at all
Comes back and begs me to catch her every time she falls
--There it is, simple and accurate-
 
B

badem

Guest
Ynt: Gitar Akor Ve Tabları (Yabancı Şarkılar)

Jennifer Lopez - Ain't İt Funny

Intro:
G Cm D
Estoy loca enamorada de ti...
G Cm G D
G Cm Fmaj Bb
It seemed to be like the perfect thing for you and me
G Cm FmAj Bb
It's so ironic you're what I had pictured you to be
G Cm Fmaj Bb
But there are facts in our lives We can never change
G Cm Dmaj D
Just tell me that you understand and feel the same
G Cm Fmaj Bb
This perfect romance that I've created in my mind
G Cm Fmaj Bb
I'd live a thousand lives Each one with you right by my side
G Cm Fmaj Bb
But yet we find ourselves in a less than perfect circumstance
G Cm Dmaj D
And so it seems like we'll never have the chance


Chorus:
G Cm
Ain't it funny how some feelings you just can't deny
D G
And you can't move on even though you try
G Cm
Ain't it strange when you're feeling things you shouldn't feel
D G
Oh,I wish this could be real
G Cm
Ain't it funny how a moment could just change your life
D G
And you don't want to face what's wrong or right
G Cm
Ain't it strange how fate can play a part
D
In the story of your heart


verse 2:
(same chords again)

Sometimes I think that a true love can never be
I just believe that somehow it wasn't meant for me
Life can be cruel in a way that I can't explain
And I don't think that I could face it all again
I barely know you but somehow I know what you're about
A deeper love I found in you,and I no longer doubt
You've touched my heart and it altered every plan I've made
And now I feel that I don't have to be afraid

Chorus:
Ain't it funny how some feelings you just can't deny
And you can't move on even though you try
Ain't it strange when you're feeling things you shouldn't feel
Oh,I wish this could be real
Ain't it funny how a moment could just change your life
And you don't want to face what's wrong or right
Ain't it strange how fate can play a part
In the story of your heart

Bridge:
CM Gm
I locked away my heart
Gm Cm
But you just set it free
Cm
Emotions I felt
Gm Cm
Held me back from what my life should be
Cm Gm
I pushed you far away
Gm Cm
And yet you stayed with me
Cm
I guess this means
Cm
That you and me were meant to be


Solo:the same as intro

repeat chorus x3
 
B

badem

Guest
Ynt: Gitar Akor Ve Tabları (Yabancı Şarkılar)

Jennifer Lopez - Alive

D, F, G, C X2
D
Time
D
Goes
D#
Slowly now
C
In my life
D
Fear
F
No more
D#
Of what I'm
C
Not sure

F
Searching to feel your soul

F
The strength to stand alone

D#
The power of not knowing

C
And letting go


G F
I guess I've found my way

G F
It's simple when it's right

G F
Feeling lucky just to be here tonight

C C
And happy just to be me and be

A#
Alive
D
Love
D
In and out
D#
On my
C
My heart
D
And though life
F
Can be strange
D#
I can't
C
Be afraid

F
Searching to feel your soul

F
The strength to stand alone

D#
The power of not knowing

C
And letting go


G F
I guess I've found my way

G F
It's simple when it's right

G F
Feeling lucky just to be here tonight

C C
And happy just to be me and be

A#
Alive


G F
I guess I've found my way

G F
It's simple when it's right

G F
Feeling lucky just to be here tonight

C C
And happy just to be me and be

A#
Alive
 
B

badem

Guest
Ynt: Gitar Akor Ve Tabları (Yabancı Şarkılar)

Justin Timberlake - Like I Love U

e)------7---------------------------------------------------------------------------
B)------7---------------------------------------------------------------------------
G)------7---------------------------------------------------------------------------
D)------7-9----(3X all together like a chord)(like Fa chord but all the way done Si but without finger on G string)
A)------7-9-------------------------------------------------------------------------
E)----7-----------------------------------------------------------------------------

e)------8---------------------------------------------------------------------------
B)------8---------------------------------------------------------------------------
G)------8---------------------------------------------------------------------------
D)------8-10----( all together like a chord)(like Fa chord but all the way done Do but without finger on G string)
A)------8-10-----------------------------------------------------------------------
E)------8---------------------------------------------------------------------------

e)------5---------------------------------------------------------------------------
B)------5---------------------------------------------------------------------------
G)------5-6-------------------------------------------------------------------------
D)------5-7----( all together like a chord)(like Fa chord but all the way done la chord
A)------5-7-------------------------------------------------------------------------
E)------5---------------------------------------------------------------------------
 
B

badem

Guest
Ynt: Gitar Akor Ve Tabları (Yabancı Şarkılar)

James Blunt - Good Bye My Lover

chuck the capo on 4th frett Enjoy!

c am
Did I disappoint you or let you down?
f g
Should I be feeling guilty or let the judges frown?
c am
'Cause I saw the end before we'd begun,
em g
Yes I saw you were blinded and I knew I had won.
c am
So I took what's mine by eternal right.
f g
Took your soul out into the night.
c am
It may be over but it won't stop there,
em g
I am here for you if you'd only care.

c
You touched my heart you touched my soul.
am
You changed my life and all my goals.
f
And love is blind and that I knew when,
g(
My heart was blinded by you.
c
I've kissed your lips and held your head.
am
Shared your dreams and shared your bed.
em
I know you well, I know your smell.
g
I've been addicted to you.

c
Goodbye my lover.
am
Goodbye my friend.
f
You have been the one.
g
You have been the one for me.

c
Goodbye my lover.
am
Goodbye my friend.
f
You have been the one.
g c
You have been the one for me.


(SAME AS VERSE ONE CHORDS)

I am a dreamer but when I wake,
You can't break my spirit - it's my dreams you take.
And as you move on, remember me,
Remember us and all we used to be
I've seen you cry, I've seen you smile.
I've watched you sleeping for a while.
I'd be the father of your child.
I'd spend a lifetime with you.
I know your fears and you know mine.
We've had our doubts but now we're fine,
And I love you, I swear that's true.
I cannot live without you.

Goodbye my lover.
Goodbye my friend.
You have been the one.
You have been the one for me.

Goodbye my lover.
Goodbye my friend.
You have been the one.
You have been the one for me.

(f c em
And I still hold your hand in mine.
g
In mine when I'm asleep.
f c em
And I will bear my soul in time,
g c
When I'm kneeling at your feet.


Goodbye my lover.
Goodbye my friend.
You have been the one.
You have been the one for me.

c am
I'm so hollow, baby, I'm so hollow.
f g
I'm so, I'm so, I'm so hollow.

c am
I'm so hollow, baby, I'm so hollow.
em g
I'm so, I'm so, I'm so hollow.

thanks oppinions wanted ;)
cheers guys.. katelin ABLINxx




(SAME AS VERSE ONE CHORDS)

I am a dreamer but when I wake,
You can't break my spirit - it's my dreams you take.
And as you move on, remember me,
Remember us and all we used to be
I've seen you cry, I've seen you smile.
I've watched you sleeping for a while.
I'd be the father of your child.
I'd spend a lifetime with you.
I know your fears and you know mine.
We've had our doubts but now we're fine,
And I love you, I swear that's true.
I cannot live without you.

Goodbye my lover.
Goodbye my friend.
You have been the one.
You have been the one for me.

Goodbye my lover.
Goodbye my friend.
You have been the one.
You have been the one for me.

(E,B,A,B)

A C#
And I still hold your hand in mine.
B
In mine when I'm asleep.
A C#
And I will bear my soul in time,
B A
When I'm kneeling at your feet.


Goodbye my lover.
Goodbye my friend.
You have been the one.
You have been the one for me.

E C#
I'm so hollow, baby, I'm so hollow.
B A
I'm so, I'm so, I'm so hollow.

E C#
I'm so hollow, baby, I'm so hollow.
B A
I'm so, I'm so, I'm so hollow.
 
B

badem

Guest
Ynt: Gitar Akor Ve Tabları (Yabancı Şarkılar)

James Blunt - Tears And Rain

INTRO
G Bm Em Em
C G D D


G Bm Em Em
how i wish i could surrender my soul
C
shed the clothes that become my skin
G D D
see the liar that burns within my needing
G Bm Em Em
how i wish i had chosen darkness from cold
C
how i wish i could scream out load
G D D
instead ive found no meaning



G D Em
i guess its time i run far, far away. find comfort in pain
C
all pleasures the same it just keeps me from trouble
G Bm Em
hides my true shape, like dorian gray
C
i heard what they say, but im not here for trouble
G D------(duraklayın)------G D
its more than just words, its just tears and rain


G Bm Em Em
how i wish i could walk through the doors of my mind
C G D D
hold memory close at hand, help me understand the years
G Bm Em Em
how i wish i could choose between heaven and hell
C G D D
how i wish i could save my sole, im so cold from fear



G D Em
i guess its time i run far, far away. find comfort in pain
C
all pleasures the same it just keeps me from trouble
G Bm Em
hides my true shape, like dorian gray
C
i heard what they say, but im not here for trouble
G D Em
far far away, find comfort in pain
C
all pleasures the same it just keeps me from trouble
G D G D
its more than just words, its just tears and rain




G D Em C
G Bm Em C




G D Em
far far away, find comfort in pain
C
all pleasures the same it just keeps me from trouble
G D-------(duraklayın)------G
its more than just words, its just tears and rain
 
B

badem

Guest
Ynt: Gitar Akor Ve Tabları (Yabancı Şarkılar)

James Blunt - Wisemen

Capo 3

display solos and tips intro

--3------3-2--------------2-------2-0-----------------------------------|
----0-0-------3-0------------3-0-------2--------------------------------|
-----------------------------------------2------------------------------|
------------------------------------------------------------------------|
------------------------------------------------------------------------| X4
------------------------------------------------------------------------|


Then Em Bm D A X2

Em
She said to me,
Bm
Go steady on me,
D A
Won't you tell me what the wise men said when they,
Em
Came down from heaven,
Bm
Smoked nine till seven,
D A
On a ship that they could find,
Em
But they,
Couldn't escape from you,
Bm
Couldn't be freed of you,
D A
And now they know there's no way out,
Em
And they're, Bm
Really sorry now for what they've done,
D A
They were just three wise men just trying to have some fun,

Chorus
Am C
Look who's alone now,
G
Its not me,
D
Its not me,
Am C G D
Those three wise men they've got her standing by the sea,
Am F
You gotta ask yourself the question,
G D
Where are you now?
Am C
You gotta ask yourself the question,
G D
Where are you now?

Em
Really sorry now,
Bm
They weren't to know
D A
They got caught up in your talent show,
Em Bm
With your benictor little bastards and your fancy dress,
D A
Who just judge each other and try to impress,

But they,
Em
Couldn't escape from you,
Bm
Couldn't be freed of you,
D A
And now they know there's no way out,

And they're,
Em Bm
Really sorry now for what they've done,
D A
They were just three wise men just trying to have some fun,

Chorus

Am C X4

Solo Tab


display solos and tips Am C G D
--------------------------------8-6b^-8--------------------------------------|
----------------------------6-8----------6-4---6-4---------------------------|
----8b^-5-----5-8----5-8---------------------5-----5-------------------------|
----------8------------------------------------------------------------------|
-----------------------------------------------------------------------------|
-----------------------------------------------------------------------------|

Am C G D
--------------11-11&10-10&8-8&6---6-6&8-8-8------------------------------|
----------11--------------------8----------------------------------------|
----8b^-5----------------------------------------------------------------|
-------------------------------------------------------------------------|
-------------------------------------------------------------------------|
-------------------------------------------------------------------------|
Am C G D
-------------11-11-11-11-10-10-8---11b^11b^-11----------------------------|
------------------------------------------------13-11-13b^-13-------------|
--------------------------------------------------------------------------|
-------5------------------------------------------------------------------|
--------------------------------------------------------------------------|
--------------------------------------------------------------------------|
Am C G D
--------------------------------------------------------------------------|
------------------------------------------11-11---13-13-13^-^-^-----------|
----8--5-------------5------8-5-8----12-----------------------------------|
----------5--8-8-8------5&8-----------------------------------------------|
--------------------------------------------------------------------------|
--------------------------------------------------------------------------|

Chorus

G D
Where are you now?
G D
Where are you now?
Am F
Gotta ask yourself the question,
G D
Where are you now? x 2
 
B

badem

Guest
Ynt: Gitar Akor Ve Tabları (Yabancı Şarkılar)

James Blunt - You're Beatiful

D&F#M&Bm&G

D
My life is brilliant.
F#M
My love is pure.
Bm
I saw an angel.
F#M
Of that I'm sure.
D
She smiled at me on the subway.
F#M
She was with another man.
Bm
But I won't lose no sleep on that,
F#M
'Cause I've got a plan.

Bm
You're beautiful. You're beautiful.
D
You're beautiful, it's true.
Bm F#M
I saw your face in a crowded place,
D F#M Bm
And I don't know what to do,
D F#M Bm
'Cause I'll never be with you.

Bm
Yeah, she caught my eye,
F#M
As we walked on by.
D
She could see from my face that I was,
G
Fucking high,
Bm F#M
And I don't think that I'll see her again,
D G
But we shared a moment that will last till the end.

Bm
You're beautiful. You're beautiful.
D
You're beautiful, it's true.
Bm F#M
I saw your face in a crowded place,
D F#M Bm
And I don't know what to do,
D F#M Bm
'Cause I'll never be with you.

G&D

Bm
You're beautiful. You're beautiful.
D
You're beautiful, it's true.
F#M
There must be an angel with a smile on her face,
Bm Bm- F#M-Bm
When she thought up that I should be with you.
D F#M Bm
But it's time to face the truth,
D F#M Bm
I will never be with you
 
B

badem

Guest
Ynt: Gitar Akor Ve Tabları (Yabancı Şarkılar)

Linkin Park - A Place for My Head

Song: A Place for My Head
Artist: Linkin Park
Album: Hybrid Theory (2000)

Dropped D and tune down 1&2 step
m = palm mute

Verse 1 Fill
eb--------------------------------------|------------------
Bb--------------------------------------|------------------
Gb-------4-4-4-5-4-2--------------------|------------------
Db--2-2--------------5-5--3-3-3--3-3-5--|--5&--------------
Ab--------------------------------------|------------------
Db--------------------------------------|------------------

Chorus
eb---------------------------------------------------------
Bb---------------------------------------------------------
Gb---------------------------------------------------------
Db--2-2---9-10-9--5-5--3-3-3-5-----------------------------
Ab--2-2---9-10-9--5-5--3-3-3-5-----------------------------
Db--2-2---9-10-9--5-5--3-3-3-5-----------------------------

Verse 2
eb---------------------------------------------------------
Bb---------------------------------------------------------
Gb---------------------------------------------------------
Db--2-2----12----2----12---12-12-12-12-12------------------
Ab--2-2----10----2----10---10-10-10-10-10------------------
Db--2-2----10----2----10---10-10-10-10-10------------------

Bridge
eb---------------------------------------------------------
Bb---------------------------------------------------------
Gb---------------------------------------------------------
Db--2m-2m--2m-2m-2m-2m--2m-2m-2m--2m-2m-2m-2m--12----------
Ab--2m-2m--2m-2m-2m-2m--2m-2m-2m--2m-2m-2m-2m--10----------
Db--2m-2m--2m-2m-2m-2m--2m-2m-2m--2m-2m-2m-2m--10----------

Outro
eb---------------------------------------------------------
Bb---------------------------------------------------------
Gb--4-4--4-4-4-4--4-4-4--4-4-4----12'----------------------
Db--2-2--2-2-2-2--2-2-2--2-2-2-0--12'----------------------
Ab--2-2--2-2-2-2--2-2-2--2-2-2-0--10'----------------------
Db--2-2--2-2-2-2--2-2-2--2-2-2-0--10'----------------------
 
B

badem

Guest
Ynt: Gitar Akor Ve Tabları (Yabancı Şarkılar)

Linkin Park - Breaking the Habit

Dropped D and tuned down 1&2 step (Dropped Db or C#)


Riff
eb-----6-----------6-----------6-----------6-----------------
Bb--6-----9--8--6-----9--8--6-----9--8--6-----9--8-----------
Gb-----------------------------------------------------------
Db-----------------------------------------------------------
Ab-----------------------------------------------------------
Db-----------------------------------------------------------


Verse
eb-----------------------------------------------------------
Bb-----------------------------------------------------------
Gb--5-5--8--5-5---5-5--6--5-5---5-5--8--5-5---5-5--6--5-5----
Db-----------------------------------------------------------
Ab-----------------------------------------------------------
Db-----------------------------------------------------------


Chorus
eb-----------------------------------------------------------
Bb-----------------------------------------------------------
Gb----8-8--8-10------8-8--8-10-----8-8--8-10------8-8--8-10--
Db-----------------------------------------------------------
Ab--8--------------8-------------8---------------8-----------
Db-----------------------------------------------------------


Bridge 1 (Guitar arranged for piano)
eb-----------------------------------------------------------
Bb-----------------------------------------------------------
Gb-----------------------------------------------------------
Db--3-----5-----6-----8-----3-----5-----6-----8--------------
Ab--3-----5-----6-----8-----3-----5-----6-----8--------------
Db--3-----5-----6-----8-----3-----5-----6-----8--------------

(continued)
eb-----------------------------------------------------------
Bb-----------------------------------------------------------
Gb------6---5----------6---5----------6---5------6---8-------
Db--3---6---5------4---6---5------4---6---5------6---8-------
Ab--3---4---3------4---4---3------4---4---3------4---6-------
Db--3--------------4--------------4--------------------------

(continued)
eb-----------------------------------------------------------
Bb-----------------------------------------------------------
Gb--6---8---6---8--------------------------------------------
Db--6---8---6---8--------------------------------------------
Ab--4---6---4---6--------------------------------------------
Db-----------------------------------------------------------


Riff
Verse, Riff
Chorus
Verse, Riff
Chorus, Riff
Bridge, Chorus, Riff
Riff
 
B

badem

Guest
Ynt: Gitar Akor Ve Tabları (Yabancı Şarkılar)

Linkin Park - Crawling


Tuning: High to Low D# A# F# C# G# C#
Petals: Chorus-Metal Distortion Verse & Pre-Chorus-synthesyser
effect.

KEY
===
' - slide up or down
~ - hold note
s - slide down off the fret board

Verse:

D#I----20-17-------------I
A#I----------20-18-17-18-I
F#I-19-------------------I
C#I----------------------I
G#I----------------------I
C#I----------------------I

Pre-Chorus

D#I----------15-17-I
A#I-15----15-------I
F#I----14----------I
C#I----------------I
G#I----------------I
C#I----------------I


Chorus:

D#I-------------------------------------I
A#I-------------------------------------I
F#I-------------------------------------I
C#I-0~----8~----'3~----'10--10--10--'7--I
G#I-0~----8~----'3~----'10--10--10--'7--I
C#I-0~----8~----'3~----'10--10--10--'7--I
&
On the slides from the 8th and 3rd frets make sure
You hold the note before sliding up or down.

Bass Riffs

Chorus&Verse

GbI---------------------------I
DbI---------------------------I
AbI-------1~----------3~--3s--I
DbI-0~----------3~------------I


Order
=====

1) Verse- 4x
2) Chorus- 2x
3) Verse- 2x
4) Pre-Chorus- 8x
4) Chorus- 2x
5) Pre-Chorus 9x
6) Chorus- 4x
7) Chorus- 2x With Verse Behind It 4x
 
B

badem

Guest
Ynt: Gitar Akor Ve Tabları (Yabancı Şarkılar)

Linkin Park - Don't Stay

Am E
Sometimes I need to remember just to breathe
E A
Sometimes I need you to stay away from me
E Am E
Sometimes I'm in disbelief I didn't know
E A
Somehow I need you to go
E
Don't stay
A
Forget our memories
D A
Forget our possibilities
Em C D
What you were changing me into
C
Just give me myself back and
E
Don't stay
A
Forget our memories
D A
Forget our possibilities
Em C D
Take all your faithlessness with you
A
Just give me myself back and
E
Don't stay

E Am
Sometimes I feel like I trusted you too well
E A
Sometimes I just feel like screaming at myself
E Am
Sometimes I'm in disbelief I didn't know
E A
Somehow I need to be alone

E
Don't stay
A
Forget our memories
D A
Forget our possibilities
Em C D
What you were changing me into
C
Just give me myself back and
E
Don't stay
A
Forget our memories
D A
Forget our possibilities
Em C D
Take all your faithlessness with you
A
Just give me myself back and
E
Don't stay

E A D A
I don't need you anymore, I don't want to be ignored
E A D A
I don't need one more day of you wasting me away
E A D A
I don't need you anymore, I don't want to be ignored
E A D A
I don't need one more day of you wasting me away
A
With no apologies

E
Don't stay
A
Forget our memories
D A
Forget our possibilities
Em C D
What you were changing me into
C
Just give me myself back and
E

A
Forget our memories
D A
Forget our possibilities
Em C D
Take all your faithlessness with you
A
Just give me myself back and
E
Don't stay
 
B

badem

Guest
Ynt: Gitar Akor Ve Tabları (Yabancı Şarkılar)

Linkin Park - Faint (Tab)

Akort Db Ab Db Gb Bb Eb

1st gitar (violin)
-22~~&24b~~~~~15&17~~~~~15&10--15&10--15&10--15&10
--------------------------------------------------
--------------------------------------------------
--------------------------------------------------
--------------------------------------------------
--------------------------------------------------

gitar 1
-24b~~~~~15&17~~~~~15&10--15&10--15&10------------
--------------------------------------------------
--------------------------------------------------
--------------------------------------------------
--------------------------------------------------
--------------------------------------------------

gitar 2
--------------------------------------------------
--------------------------------------------------
---------------------------------------7-7-7-7----
---------------------------------------x-x-x-x----
-------------------0~~~~~~~~~~~~~~~~~--5-5-5-5----
-------------------0~~~~~~~~~~~~~~~~~-------------
vol. swell w&dist.

Giriş ve Nakarat
gitar 1
----------------------------------------------------------------
----------------------------------------------------------------
-----14''12-12~~------14''10-10-------14''12-12------14''10-10--
---------------------------------------------------------------- 2x
-----12''10-10~~------12''-8--8-------12''10-10------12''-8--8--
----------------------------------------------------------------

gitar 2
-------------------------------------------------------------
-------------------------------------------------------------
-------------------------------------------------------------
0-0-0-0-0-0-0-0-3-3-3-3-3-3-3-3-8-8-8-8-8-8-8-8-5-5-5-7~~5-3- 2x
0-0-0-0-0-0-0-0-3-3-3-3-3-3-3-3-8-8-8-8-8-8-8-8-5-5-5-7~~5-3-
0-0-0-0-0-0-0-0-3-3-3-3-3-3-3-3-8-8-8-8-8-8-8-8-5-5-5-7~~5-3-

gitar 1
-24b~~~~~15&17~~~~~15&10--15&10--15&10--15&10----
-------------------------------------------------
-------------------------------------------------
------------------------------------------------- 3x
-------------------------------------------------
-------------------------------------------------

gitar 2
-------------------------------------------------
-------------------------------------------------
-------------------------------------------------
-0----------------------------------------------- 2x
-0-----------------------------------------------
-0-----------------------------------------------

gitar 2
--------------------------------------------------
--------------------------------------------------
-----------------------------------------7-5-5-5--
-0-----------------8-------------10------x-x-x-x--
-0-----------------8-------------10------5-5-5-5--
-0-----------------8-------------10---------------

Ara
gitar 1&2
------------------------------- 4x
-------------------------------
-------------------------------
0-3-7-0-3-1---00-0-3-7-0-3-2---
0-3-7-0-3-1---00-0-3-7-0-3-2---
0-3-7-0-3-1---00-0-3-7-0-3-2---

Nakarat 4x

Şarkının sonu şöyle

-------------------------------
-------------------------------
---10--10-10-10-8-8------------
-------------------------------
----8---8--8--8-6-6------------
-------------------------------
 
B

badem

Guest
Ynt: Gitar Akor Ve Tabları (Yabancı Şarkılar)

Linkin Park - In The End

Em
It starts with One thing I don't know why
D
It doesn't even matter how hard you try
C
Keep that in mind I designed this rhyme
D
To explain in due time
Em
All I know Time is a valuable thing
D
Watch it fly by as the pendulum swings
C
Watch it count down to the end of the day
D
The clock ticks life away
Em
It's so unreal Didn't look out below
D
Watch the time go right out the window
C
Trying to hold on but didn't even know
D
Wasted it all just to
Em
Watch you go I kept everything inside
D
And even though I tried it all fell apart
C
What it meant to me will eventually
D
Be a memory of a time when


Em G D C
I tried so hard And got so far But in the end It doesn't even matter
Em G D C
I had to fall To lose it all But in the end It doesn't even matter


Em
One thing I don't know why
D
It doesn't even matter how hard you try
C
Keep that in mind I designed this rhyme
D
To remind myself how
Em
I tried so hard In spite of the way you were mocking me
D
Acting like I was part of your property
C
Remembering all the times you've fought with me
D
I'm surprised it got so (far)
Em
Things aren't the way they were before
D
You wouldn't even recognize me anymore
C
Not that you knew me back then
D
But it all comes back to me
Em
(In the end)
Em
You kept everything inside
D
And even though I tried it all fell apart
C
What it meant to me will eventually
D
Be a memory of a time when


Em G D C
I tried so hard And got so far But in the end It doesn't even matter
Em G D C
I had to fall To lose it all But in the end It doesn't even matter


Em D C D
I put my trust in you Pushed as far as I can go
Em D C D
And for all this There's only one thing you should know

Em D C D
I put my trust in you Pushed as far as I can go
Em D C D
And for all this There's only one thing you should know


Em G D C
I tried so hard And got so far But in the end It doesn't even matter
Em G D C
I had to fall To lose it all But in the end It doesn't even matterrr
 
B

badem

Guest
Ynt: Gitar Akor Ve Tabları (Yabancı Şarkılar)

Linkin Park - Numb

E|---------------14--17--16-------------17--16--12-------|
B|---14--15--14--------------14--15--14------------------|
G|-------------------------------------------------------|
D|-------------------------------------------------------|
A|-------------------------------------------------------|
E|-------------------------------------------------------|



F#m D
I'm tired of being what you want me to be
A
Feeling so faithless
E
Lost under the surface
F#m D
I don't know what you're expecting of me
A
Put under the pressure
E D
of walking in your shoes
E
(Caught in the undertow, just caught in the undertow)


Pre Chorus:

F#m
Every step that I take is
A D
another mistake to you
E
(Caught in the undertow, just caught in the undertow)


Chorus:

F#m D
I've became so numb
A
I can't feel you there
E
Become so tired
F#m
So much more aware
D
I'm becoming this
A
All I want to do
E
Is be more like me
F#m
And be less like you



E|---------------14--17--16-------------17--16--12-------|
B|---14--15--14--------------14--15--14------------------|
G|-------------------------------------------------------|
D|-------------------------------------------------------|
A|-------------------------------------------------------|
E|-------------------------------------------------------|


D
Can't you see that you're smothering me
A E F#m
Holding too tightly afraid to lose control
D
Cause everything that you thought I would be
A E D
Has fallen apart right in front of you
E
(Caught in the undertow, just caught in the undertow)
F#m
Every step that I take is
A D
another mistake to you
E
(Caught in the undertow, just caught in the undertow)
F#m A
And every second I waste is more than I can take


Chorus:

F#m D
I've became so numb
A
I can't feel you there
E
Become so tired
F#m
So much more aware
D
I'm becoming this
A
All I want to do
E
Is be more like me
F#m
And be less like you


End:

E F#m G#m A C#m D
And I know I may end up failing, too.
E C#m
But I know you were just like me with someone disappointed in you


Chorus:

F#m D
I've became so numb
A
I can't feel you there
E
Become so tired
F#m
So much more aware
D
I'm becoming this
A
All I want to do
E
Is be more like me
F#m
And be less like you

D
I've become so numb
A
I can't feel you there
E
(Tired of being what you want me to be)

F#m D
I've become so numb
A
I can't feel you there
E
(Tired of being what you want me to be)


E|---------------14--17--16-------------17--16--12-------|
B|---14--15--14--------------14--15--14------------------|
G|-------------------------------------------------------|
D|-------------------------------------------------------|
A|-------------------------------------------------------|
E|-------------------------------------------------------|
 
B

badem

Guest
Ynt: Gitar Akor Ve Tabları (Yabancı Şarkılar)

Linkin Park - One Step Closer Acoustic

Intro : Em C Am Em X 2

Am C Am Em
I cannot take this anymore
C Am Em
I'm saying everything I've said before
C
All these words they make no sense
Am Em
I find bliss in ignorance
C
Less I hear the less you'll say
Am em
But you'll find that out anyway
C Em
Just like before...

Chorus :
Em c
Kapo 1 ile çalınabilir


Everything you say to me
Em C Am
Takes me one step closer to the edge
Em
And I'm about to break
C
I need a little room to breathe
Em C Am
Cause I'm one step closer to the edge
Em
And I'm about to break

Em C Am Em
I find the answers aren't so clear
Em C Am Em
Wish I could find a way to disappear
C
All these thoughts they make no sense
Am Em
I find bliss in ignorance
C
Nothing seems to go away
Am Em
Over and over again
C Em
Just like before...

Chorus :
Everything you say to me
Em c
Everything you say to me
Em C Am
Takes me one step closer to the edge
Em
And I'm about to break
C
I need a little room to breathe
Em C Am
Cause I'm one step closer to the edge
Em
And I'm about to break
Em c
Everything you say to me
Em C Am
Takes me one step closer to the edge
Em
And I'm about to break
C
I need a little room to breathe
Em C Am
Cause I'm one step closer to the edge
Em
And I'm about to break

Em C Am Em X 3

Em C Am Em
shut up when I'm talking to you
Em Em C Am Am X3
shut up X3
Em C Em Em Em Em
shut up when I'm talking to you
Em Em C Am Am X3
shut up X3
I'm about to break

Chorus :
Everything you say to me
Em c
Everything you say to me
Em C Am
Takes me one step closer to the edge
Em
And I'm about to break
C
I need a little room to breathe
Em C Am
Cause I'm one step closer to the edge
Em
And I'm about to break
Em c
Everything you say to me
Em C Am
Takes me one step closer to the edge
Em
And I'm about to break
C
I need a little room to breathe
Em C Am
Cause I'm one step closer to the edge
Em
And I'm about to break
 
B

badem

Guest
Ynt: Gitar Akor Ve Tabları (Yabancı Şarkılar)

Linkin Park - Pushing Me Away

Em C
When I look into your eyes
G Am
There's nothing there to see
Em C
Nothing but my own mistake
G Am
Staring back at me


Em C Em
i've lied to you
Em C
this is the last smile
G D Em
that i'll fake for the sake of being with you
Em C
(everything falls apart, even the people who never frown, eventually break down,
G D
everything has to end, you'll soon find, we're outta time, left to watch it all unwind)
Em G C D
for the sake of being with you
Em C
(everything falls apart, even the people who never frown, eventually break down)
Em G D
the sacrifice is never knowing


E C G D
why i stayed with you just push away
E C
no matter what you see
G D
you're still so blind to me


Em C
i've tried like you
G D
to do everything you wanted to
Em C
this is the last time
G D C D
i'll take the blame for the sake of being with you

(everything falls apart, even the people who never frown, eventually break down)
Em G C D
the sacrifice of hiding in a lie

(everything has to end, you'll soon find, we're outta time, left to watch it all unwind)
Em G D
the sacrifice is never knowing


E C G D
why i stayed with you just push away
E C
no matter what you see
G D
you're still so blind to me


Em
reverse psychology's
C
failing miserably
G
it's so hard to be
D
left all alone
Em
telling you is thee
C
only chance for me
G
there's nothing left but
D
to turn and face you


Em C
when i look into your eyes
G D
there's nothing there to see
Em C
nothing but my own mistake
G D
staring back at me
C D
asking why.....


Em G C D
the sacrifice of hiding in a lie
Em G D
the sacrifice is never knowing


E C G D
why i stayed with you just push away
E C
no matter what you see
G D
you're still so blind to me asking

E C G D
why i stayed with you just push away
E C
no matter what you see

G D Em
you're still so blind to me
 
B

badem

Guest
Ynt: Gitar Akor Ve Tabları (Yabancı Şarkılar)

Linkin Park - Somewhere I Belong

Tabbed by John D.

Repeat parts as necessary, listen to song for order.
Tuning low-high (Bb,F,Bb,Eb,G,C)
Intro&Verse
C |-------------------|
G |--10-------13--10--|
Eb|-----10------------|
Bb|--------12---------|
F |-------------------|
Bb|-------------------|

Chorus (strumming pattern not shown, figure it out yourself)
C |-----|--------------------|--------------------|
G |-----|--------------------|--------------------|
Eb|--7--|--------------------|--------------------|
Bb|-----|--4----5----7----5--|--4----5----2----5--|
F |-----|--0----3----8----5--|--0----3----3----5--|
Bb|-----|--0----3----8----5--|--0----3---------5--|
^pm

Bridge
C |--------------------------------------------------------|
G |--------------------------------------------------------|
Eb|-------2-2--2---3-3--2-2--2---5-5--2-2--2---------------|
Bb|--0-0-----------3-3-----------5-5-----------5-5--2-3-2--|
F |--0-0-----------1-1-----------3-3-----------5-5---------|
Bb|--0-0---------------------------------------5-5---------|

Bride Variation
C |--------------------------------------------------------|
G |--------------------------------------------------------|
Eb|-------2-2--2---3-3--5-5--5---5-5--2-2--2---------------|
Bb|--0-0-----------3-3-----------5-5-----------5-5--2-3-2--|
F |--0-0-----------1-1-----------3-3-----------5-5---------|
Bb|--0-0---------------------------------------5-5---------|

Ending Riff (strumming pattern not shown for chord)
C |---------------|
G |---------------|
Eb|------7-7-7-7--|
Bb|--4------------|
F |--0------------|
Bb|--0------------|
^PM
 
Üst