Gitar Akor Ve Tabları (Yabancı Şarkılar)

B

badem

Guest
Ynt: Gitar Akor Ve Tabları (Yabancı Şarkılar)

the rasmus in_the_shadow


|-------------------------------------------------------------------||
|-------------------------------------------------------------------||
|-------------------------------------------------------------------||
|--------2---------------------------------2------------------------||
|-5-5--5---5-2--0------------0-2--4-5-5--5---5-2--0--4-4--6-6--7----||
|-----------------2-2--2-1-2-------------------------2-2--4-4--5----||


Gtr I

|----------------------------------------------------------------------|
|----------------------------------------------------------------------|
|-7-7--7-7-7-------------------------6--7---7-7-7----------------------|
|-7-7--7-7-7-------4-4--4-4-4--------6--7---7-7-7---------4-4--6--7----|
|-5-5--5-5-5--4-0--4-4--4-4-4--0-2---4--5---5-5-5---4--0--4-4--6--7----|
|------------------2-2--2-2-2-----------------------------2-2--4--5----|



|---------------------------------------------------------------------------------------------------------------|
|---------------------------------------------------------------------------------------------------------------|
|-7-7-7-7-7-7-7-7-------------------4-4-4-4-4-4-4-4-------------------------------------------------------------|
|-7-7-7-7-7-7-7-7--4-4-4-4-4-4-4-4--4-4-4-4-4-4-4-4--4-4-4-4-4-4-4-4---------4---3--2---------------------------|
|-5-5-5-5-5-5-5-5--4-4-4-4-4-4-4-4--2-2-2-2-2-2-2-2--4-4-4-4-4-4-4-4---------4---3--2---------------------------|
|------------------2-2-2-2-2-2-2-2-------------------2-2-2-2-2-2-2-2---------2---1--0---------------------------|




|--------------------------------------------------------------------------------------|
|--------------------------------------------------------------------------------------|
|-7-7-7-7-7-7-7-7-7-7-7-7-7-7-7-7------------------------------------------------------|
|-7-7-7-7-7-7-7-7-7-7-7-7-7-7-7-7-------4-4-4-4-4-4-4-4-4-4-4-4-4-4-4-4-----4--3--2----|
|-5-5-5-5-5-5-5-5-5-5-5-5-5-5-5-5-------4-4-4-4-4-4-4-4-4-4-4-4-4-4-4-4-----4--3--2----|
|---------------------------------------2-2-2-2-2-2-2-2-2-2-2-2-2-2-2-2-----2--1--0----|
 
B

badem

Guest
Ynt: Gitar Akor Ve Tabları (Yabancı Şarkılar)


The Rasmus - In The Shadows
C Em Am Em
No sleep no sleep untill I am done with finding the answer
C Em Am Em
Won't stop before I find a cure of for this cancer
C Em Am Em
Sometimes I feel going down and so disconnected
C Em Am C Em
Somehow I know that I am haunted to be wanted

C Em Am Em
I been watching,I been waiting In the shadows all my time
C Em Am Em
I been searching,I been living for tomorrows all my life
C Em Am Em
Aoo...Ao....Ao....In the shadows
C Em Am Em
Ao...Ao...Ao....Aooo.In the shadows

C Em Am Em
They say that I must learn to kill before I can feel safe
C Em Am Em
But I,I rather kill myself then turn into there slave
C Em C Em
Sometimes I feel that I should go and play with the thunder
C Em An C Em
Somehow I just don't wanne stay and wait for a wonder

C Em Am Em
I been watching,I been waiting In the shadows all my time
C Em Am Em
I been searching,I been living for tomorrows all my life

Am Em
Lately I been walking walking in circels,watching waiting for something
Am Em Am-C-Em
Feel me touch me feel me,come take me higher

C Em Am Em
I been watching I been waiting In the shadows all my time
C Em Am Em
I been searching I been living for tomorrows all my life
C Em Am Em
Aooo...Aooo....Aooo. In the shadows...
C Em Am Em
Aooo....Aooo....Aoooo In the shadows...
 
B

badem

Guest
Ynt: Gitar Akor Ve Tabları (Yabancı Şarkılar)

Shakira - Under Neath Your Clothes

INTRO:

e|-------------------------------------------
B|--0----------------------0-----------------
G|----0-2-2-0----------------O-2-2-----------
D|---------------4-44-5-----------------4-5-4
A|-------------3---------------------3-------
E|3----------------------3-------------------

Em Bm
You're a song
C Am
Written by the hands of God
Em Bm
Don't get me wrong cause
C Am
This might sound to you a bitt odd
Em Bm C
But you own the place
D Em Bm
Where all my thoughts go hiding
C Am
And right under your clothes
D
Is where I find them

G D C
Underneath your clothes
D
There's an endless story
G D C
There's the man I chose
D
There's my territory
Em Am
And all the things I deserve
D
For being such a good girl honey
G (3&4....3&9-3&7)

Em Bm
Because of you
C Am
I forgot the smart ways to lie
Em Bm
Because of you
C Am
I'm running out of reasons to cry
Em Bm C
When the friends are gone
D Em Bm
When the party's over
C Am D
We will still belong to each other

G D C
Underneath your clothes
D
There's an endless story
G D C
There's the man I chose
D
There's my territory
Em Am
And all the things I deserve
D
For being such a good girl honey...
(BIS)
C
For being such aaaaaaa....

A(-) F
I love you more than all that's on the planet
Gm F
Movin' talkin' walkin' breathing
Cm
You know it's true
Cm7
Oh baby it's so funny
F
You almost don't believe it
A(-) F
As very voice is hanging from the silence
Gm F
Lamps are hanging from the ceiling
Cm Cm7
Like a lady to her good manners
F Em
I'm tied up to this feeling


Em, Bm, C, D, G, Bm, C, D, G ,D, C, D, G, Bm, C, D

&
2&3..2&5-2&3 - 3&2..3&5
&
3&2-3&0-3&2 - 3&2..3&5
&
2&3..2&5-2&3 - 3&2..3&5
&' G
3&2..3&5 - 3&5-3&2-3&0-3&2-3&0

G D C
Underneath your clothes
D
There's an endless story
G D C
There's the man I chose
D
There's my territory
Em Am
And all the things I deserve
D
For being such a good girl honey...
(BIS)
D C Em
For being such a good girl.
 
B

badem

Guest
Ynt: Gitar Akor Ve Tabları (Yabancı Şarkılar)

Red Hot Chili Peppers - Californication

4&4
Gtr I
~~ ~~ ~
|----9------------------9----------------------------------|
|-10-----------------10------------------7-7-5--7p5--------|
|-------11b12r=11-----------11b12r=11---------------6-6----|
|----------------------------------------------------------|
|----------------------------------------------------------|
|----------------------------------------------------------|


~ ~ ~~ ~~~~~~
|-----------------------------9--12--14-------9--12--14b16r==14----|
|-----5--7b8.5r=7--5-------10--------------10----------------------|
|-4-6----------------6---------------------------------------------|
|------------------------------------------------------------------|
|------------------------------------------------------------------|
|------------------------------------------------------------------|


|-17-16-14----14---------------------------------------------------12--------|
|----------17-----17-14-17---14---14---------14---------14-------------14----|
|---------------------------------16b17.5====16b17.5====16b17.5==============|
|----------------------------------------------------------------------------|
|----------------------------------------------------------------------------|
|----------------------------------------------------------------------------|


~~
|------------------------------------------------------|
|-19b20r==19--17------17--------------17--15--14-------|
|-----------------18------18--16--14-------------14----|
|------------------------------------------------------|
|------------------------------------------------------|
|------------------------------------------------------|
 
B

badem

Guest
Ynt: Gitar Akor Ve Tabları (Yabancı Şarkılar)

Red Hot Chili Peppers - By The Way

Intro (x1)
G|10-10-10-10-10-10-10-10|9-9-9-9-9-9-9-9|----------------|----------------|
D|-----------------------|---------------|7-7-7-7-7-7-7-7-|-7-7-7-7-7-7-7-7|
A|-----------------------|---------------|----------------|----------------|
E|-----------------------|---------------|----------------|----------------|

G|-10-10-10-10-10-10-10-10-|-------------------------|-9-9-9-9-9-9-9-9-|
D|-------------------------|-10-10-10-10-10-10-10-10-|-----------------|
A|-------------------------|-------------------------|-----------------|
E|-------------------------|-------------------------|-----------------|

G|-9-9-9-9-9-9-&14-|-----------------|-5-5-5-5-5-5-5-5-|-2-2-2-2-2-2-2-2-|
D|-----------------|-3-3-3-3-3-3-3-3-|-----------------|-----------------|
A|-----------------|-----------------|-----------------|-----------------|
E|-----------------|-----------------|-----------------|-----------------|

G|-2-2-2-2-2-2-&17-|-17-17-17-17-17-17-17-17-|-19-19-19-19-19-19-19-19-|
D|-----------------|-------------------------|-------------------------|
A|-----------------|-------------------------|-------------------------|
E|-----------------|-------------------------|-------------------------|

G|-14-14-14-14-14-14-14-14-|-15-15-15-15-15-15-15-15-|
D|-------------------------|-------------------------|
A|-------------------------|-------------------------|
E|-------------------------|-------------------------|

Verse (x4)
G|-----------------------|-----------------------|
D|--------3--------------|--------3--------------|
A|-----3h5---x-3h5-x-3h5-|-----3h5---x-0h3-------|
E|-0-0-------------------|-0-0-------------x-5p3-|

G|-----------------------|-----------------------|
D|--------3--------------|-----------------------|
A|-----3h5---x-3h5-x-3h5-|-----3h5---555&666-----|
E|-0-0-------------------|-0-0-------------------|


1st Chorus (x 1)
G|---------------5-|-5---5--55-5-5-5-|
D|-3---3--33-3-----|-----------------|
A|-----------------|-----------------|
E|-----------------|-----------------|

G|-7---7--77-7-7-7-|-7---7--77-7-75---|
D|-----------------|---------------73-|
A|-----------------|------------------|
E|-----------------|------------------|

G|---------------5-|-5---5--55-5-5-5-|
D|-3---3--33-3-----|-----------------|
A|-----------------|-----------------|
E|-----------------|-----------------|

G|------------------|------------------|
D|------------------|------------------|
A|-0---0---0-0-0----|-x---1-1-1-1-1-1--|
E|------------------|------------------|


Verse (x4)

Intro (x1)

1ST Solo (x1)
G|-19-17----19-17----19-17----19-17----19-17----|
D|-------19-------19-------19-------19-------19-|
A|----------------------------------------------|
E|----------------------------------------------|

G|-17-14----14-17-14----17-14------------|
D|-------17----------17-------17-14-(14)-|
A|---------------------------------------|
E|---------------------------------------|

G|-12-10----12-10----12-10----10------------------------------|
D|-------12-------12-------12----12-10-12-10------------------|
A|-------------------------------------------10--5--3---------|
E|-----------------------------------------------------3--1&2-|

Verse (x2)

2ND Chorus (x1)
G|----------------------------------------------------------------------|
D|------8-9-1010101010-12121212-10-----------8-9-10101010-777777-888888-|
A|-8888----------------------------12---8888----------------------------|
E|----------------------------------------------------------------------|

G|---------------------------------------------|
D|-----------7-8-10--(10)-10-10-10-10-9-10-&12-|
A|-8-8-8-8-8-----------------------------------|
E|---------------------------------------------|

G|-------------------------------------------------------|
D|-14--15-14-15-17--15-14-12--12-10----12-10-12-10-------|
A|----------------------------------12-------------12-10-|
E|-------------------------------------------------------|

G|---------------------------------------|
D|-------8-9-1010101010---7777777-888888-|
A|-88888---------------------------------|
E|---------------------------------------|

Guitar until drums come in then you start the solo

2ND Solo (x1)
G|-17-14-|-------------------------------|
D|-------|-17-15-------15----17-17-17-17-|
A|-------|-------17-------17-------------|
E|-------|-------------------------------|

G|-----------------------------------------|
D|-17s19s17S15-17-15-----15----15----15-17-|
A|-------------------15-----17----17-------|
E|-----------------------------------------|

G|-------------------------------------------------|
D|-14s12----------12-13s14-14-14S17-17-17-17-14-12-|
A|-------15-12-15----------------------------------|
E|-------------------------------------------------|

G|-----------------------------------------|
D|-14-12-15-12-----------------------------|
A|-------------15-14-15-14---15-14---15-14-|
E|-----------------------------------------|


Guitar solo and riff (x8) end
G|------------------------|---|
D|------------------------|---|
A|-5-5-51-1-1&8-8-83-3-3&-|-5-|
E|------------------------|---|

You can do lots of fills on this riff so just muck around
and make up some or you can work out what flea plays your
self I will give you one example.

G|-----------3------------|
D|------------------------|
A|-5-5-51-1---------3-3-4-|
E|-------------0-1-1------|

LAYOUT
INTRO X1
VERSE X4
1ST CHORUS X1
VERSE X4
INTRO X1
1ST SOLO X1
2ND VERSE X2
REST TILL DRUMS COME IN
2ND SOLO X1
GUITAR SOLO X8
 
B

badem

Guest
Ynt: Gitar Akor Ve Tabları (Yabancı Şarkılar)

Red Hot Chili Peppers - Fortune Faded

INTRO

e|-------------------------------------------------------------------------|
B|-------------------------------------------------------------------------|
G|-------------------------------------------------------------------------|
D|-4444444444444444--------------------------------------------------------|
A|-4444444444444444--------------------------------------------------------|
E|-2222222222222222--------------------------------------------------------|

VERSE 1

e|-------------------------------------------------------------------------|
B|--------------------------------------------------------14-14-14---------|
G|---11----------------11---------------14-11-14-11-14-11------------------|
D|-9----11-----------9----12-11--------------------------------------------|
A|-------------------------------------------------------------------------|
E|-------------------------------------------------------------------------|

e|-------------------------------------------------------------------------|
B|-------------------------------------------------------------------------|
G|---11----------------11---------------14-11-14-11'-----------------------|
D|-9----11-----------9----12-11--------------------------------------------|
A|-------------------------------------------------------------------------|
E|-------------------------------------------------------------------------|

e|-------------------------------------------------------------------------|
B|-------------------------------------------------------------------------|
G|-------------------------------------------------------------------------|
D|-12-12-12--7-7-7----------------12-12-12--7-7-7--------------------------|
A|-12-12-12--7-7-7----------------12-12-12--7-7-7--------------------------|
E|-10-10-10--5-5-5----------------10-10-10--5-5-5--------------------------|

e|-------------------------------------------------------------------------|
B|-------------------------------------------------------------------------|
G|---11----------------11---------------14-11-14-11------------------------|
D|-9----11-----------9----12-11--------------------------------------------|
A|-------------------------------------------------------------------------|
E|-------------------------------------------------------------------------|

e|-------------------------------------------------------------------------|
B|-------------------------------------------------------------------------|
G|-------------------------------------------------------------------------|
D|-12-12-12--7-7-7----------------12-12-12--7-7-7--------------------------|
A|-12-12-12--7-7-7----------------12-12-12--7-7-7--------------------------|
E|-10-10-10--5-5-5----------------10-10-10--5-5-5--------------------------|

e|-------------------------------------------------------------------------|
B|-------------------------------------------------------------------------|
G|---11----------------11--------14-11-14-11-14-11--14-11-14-11-14-11-14-11|
D|-9----11-----------9----12-11--------------------------------------------|
A|-------------------------------------------------------------------------|
E|-------------------------------------------------------------------------|

CHORUS

e|-------------------------------------------------------------------------|
B|-------------------------------------------------------------------------|
G|-------------------------------------------------------------------------|
D|-77777777-12-7-55555555--99999999----------------------------------------|
A|-77777777-12-7-55555555--99999999----------------------------------------|
E|-55555555-10-5-33333333--77777777----------------------------------------|

e|-------------------------------------------------------------------------|
B|-------------------------------------------------------------------------|
G|-------------------------------------------------------------------------|
D|-77777777-12-7-55555555--99999999----------------------------------------|
A|-77777777-12-7-55555555--99999999----------------------------------------|
E|-55555555-10-5-33333333--77777777----------------------------------------|

VERSE 2

e|-------------------------------------------------------------------------|
B|--------------------------------------------------------14-14-14---------|
G|---11----------------11---------------14-11-14-11-14-11------------------|
D|-9----11-----------9----12-11--------------------------------------------|
A|-------------------------------------------------------------------------|
E|-------------------------------------------------------------------------|

e|-------------------------------------------------------------------------|
B|-------------------------------------------------------------------------|
G|---11----------------11---------------14-11-14-11'-----------------------|
D|-9----11-----------9----12-11--------------------------------------------|
A|-------------------------------------------------------------------------|
E|-------------------------------------------------------------------------|

e|-------------------------------------------------------------------------|
B|-------------------------------------------------------------------------|
G|-------------------------------------------------------------------------|
D|-12-12-12--7-7-7----------------12-12-12--7-7-7--------------------------|
A|-12-12-12--7-7-7----------------12-12-12--7-7-7--------------------------|
E|-10-10-10--5-5-5----------------10-10-10--5-5-5--------------------------|

e|-------------------------------------------------------------------------|
B|-------------------------------------------------------------------------|
G|---11----------------11--------14-11-14-11-14-11--14-11-14-11-14-11-14-11|
D|-9----11-----------9----12-11--------------------------------------------|
A|-------------------------------------------------------------------------|
E|-------------------------------------------------------------------------|

CHORUS

e|-------------------------------------------------------------------------|
B|-------------------------------------------------------------------------|
G|-------------------------------------------------------------------------|
D|-77777777-12-7-55555555--99999999----------------------------------------|
A|-77777777-12-7-55555555--99999999----------------------------------------|
E|-55555555-10-5-33333333--77777777----------------------------------------|

e|-------------------------------------------------------------------------|
B|-------------------------------------------------------------------------|
G|-------------------------------------------------------------------------|
D|-77777777-12-7-55555555--99999999----------------------------------------|
A|-77777777-12-7-55555555--99999999----------------------------------------|
E|-55555555-10-5-33333333--77777777----------------------------------------|

BRIDGE


e|-------------------------------------------------------------------------|
B|-------------------------------------------------------------------------|
G|-------------------------------------------------------------------------|
D|-4444444444444444--------------------------------------------------------|
A|-4444444444444444--------------------------------------------------------|
E|-2222222222222222--------------------------------------------------------|

CHORUS

e|-------------------------------------------------------------------------|
B|-------------------------------------------------------------------------|
G|-------------------------------------------------------------------------|
D|-77777777-12-7-55555555--99999999----------------------------------------|
A|-77777777-12-7-55555555--99999999----------------------------------------|
E|-55555555-10-5-33333333--77777777----------------------------------------|

e|-------------------------------------------------------------------------|
B|-------------------------------------------------------------------------|
G|-------------------------------------------------------------------------|
D|-77777777-12-7-55555555--99999999----------------------------------------|
A|-77777777-12-7-55555555--99999999----------------------------------------|
E|-55555555-10-5-33333333--77777777----------------------------------------|

e|-------------------------------------------------------------------------|
B|-------------------------------------------------------------------------|
G|-------------------------------------------------------------------------|
D|-77777777-12-7-55555555--99999999----------------------------------------|
A|-77777777-12-7-55555555--99999999----------------------------------------|
E|-55555555-10-5-33333333--77777777----------------------------------------|

e|-------------------------------------------------------------------------|
B|-------------------------------------------------------------------------|
G|-------------------------------------------------------------------------|
D|-77777777-12-7-55555555--99999999----------------------------------------|
A|-77777777-12-7-55555555--99999999----------------------------------------|
E|-55555555-10-5-33333333--77777777----------------------------------------|

END.
 
B

badem

Guest
Ynt: Gitar Akor Ve Tabları (Yabancı Şarkılar)

Red Hot Chili Peppers - Otherside

intro
-----------------------------------------------------------------------------
-----------------------------------------------------------------------------
-----------------------------------------------------------------------------
--------------7--7--9--7-----------------------------------------------------
-----7--7--7--------------10--7--------5--5--5-------------------------------
-----------------------------------------------------------------------------

-----------------------------------------------------------------------------
-----------------------------------------------------------------------------
-----------------------------------------------------------------------------
--------------7--7--9--7-----------------------------------------------------
-----7--7--7--------------10--7--7--7--5--5--5-------------------------------
-----------------------------------------------------------------------------
How long, how long.......

-----------------------------------------------------------------------------
-----------------------------------------------------------------------------
-----------------------------------------------------------------------------
-------------7--7--9--7------------------------------------------------------
----7--7--7--------------10--7--7--7--5--5--5--------------------------------
-----------------------------------------------------------------------------

-----------------------------------------------------------------------------
-----------------------------------------------------------------------------
----------------------9--9--9------------------------------------------------
-------------7--7--7----------9---9--9---------------------------------------
----7--7--7------------------------------------------------------------------
-----------------------------------------------------------------------------

verse
(a) (b)
------------------------15----|-----3--------------5-------------------------
--13--------------12----------|-----3--------------5-------------------------
------------------------------|-----4--------------6-------------------------
------------------------------|-----5--------------7-------------------------
------------------------------|-----5--------------7-------------------------
------------------------------|-----3--------------5-------------------------
Verse form
(a) x3
(b) x1
(a) x3
(b) x3
heard your voice through a photograph........

chorus
-----------------------------------------------------------------------------
-----------------------------------------------------------------------------
-----------------------------------------------------------------------------
-------------7--7--9--7------------------------------------------------------
----7--7--7--------------10--7--7--7--5--5--5--------------------------------
-----------------------------------------------------------------------------

-----------------------------------------------------------------------------
-----------------------------------------------------------------------------
-----------------------------------------------------------------------------
-------------7--7--9--7------------------------------------------------------
----7--7--7--------------10--7--7--7--5--5--5--------------------------------
-----------------------------------------------------------------------------

-----------------------------------------------------------------------------
-----------------------------------------------------------------------------
---------------------9--9--9--9&12--12--12--12-------------------------------
-------------7--7--7---------------------------------------------------------
----7--7--7------------------------------------------------------------------
-----------------------------------------------------------------------------
how long how long............

verse
(a) (b)
------------------------15----|-----3--------------5-------------------------
--13--------------12----------|-----3--------------5-------------------------
------------------------------|-----4--------------6-------------------------
------------------------------|-----5--------------7-------------------------
------------------------------|-----5--------------7-------------------------
------------------------------|-----3--------------5-------------------------
Verse form
(a) x3
(b) x1
(a) x3
(b) x3

Pour my life into a paper cup.......

chorus
-----------------------------------------------------------------------------
-----------------------------------------------------------------------------
-----------------------------------------------------------------------------
-------------7--7--9--7------------------------------------------------------
----7--7--7--------------10--7--7--7--5--5--5--------------------------------
-----------------------------------------------------------------------------

-----------------------------------------------------------------------------
-----------------------------------------------------------------------------
-----------------------------------------------------------------------------
-------------7--7--9--7------------------------------------------------------
----7--7--7--------------10--7--7--7--5--5--5--------------------------------
-----------------------------------------------------------------------------

-----------------------------------------------------------------------------
-----------------------------------------------------------------------------
----------------------9--9--9------------------------------------------------
-------------7--7--7-----------9----9--9-------------------------------------
----7--7--7------------------------------------------------------------------
-----------------------------------------------------------------------------
Bridge

|-------------Harmonics--------------------|
-----12-----12-------12------------------------------------------------------
--------------------------------12---12-----12-------------------------------
-----------------------------------------------------------------------------
-----------------------------------------------------------------------------
-----------------------------------------------------------------------------
-----------------------------------------------------------------------------

Solo
------------------10&12--12-12-12---12h15--12-12-12h15-12-12h15-12--12h5-----
--10--10-10-10-10------------------------------------------------------------
-----------------------------------------------------------------------------
-----------------------------------------------------------------------------
-----------------------------------------------------------------------------
-----------------------------------------------------------------------------
 
B

badem

Guest
Ynt: Gitar Akor Ve Tabları (Yabancı Şarkılar)

Red Hot Chili Peppers - Under The Bridge

D F# D
e|---------------------!---------------------!--------------___----------|
b|(1)------1-----------!(0)------------------!-------------1-3-1---------|
g|-----0-----0---------!---------1-----------!---------0---------0-------|
d|---2---2-------------!-----2-----2-2-0-----!-----2---------------2&4-4-|
a|-3-----------2-0-----!---2---2---------3-0-!-2&3---3---3---------3&5-5-|
E|-----------------3-2-!-0-------------------!---------------------------|

F# D F#
e|---------------------!-------------------------!---------------------|
b|-0-------------------!-------------1-----------!---------------------|
g|---------1-----------!---------0-----0---------!---------1-----------|
d|-----2-----2-2-0-----!-----2-----2-------------!-----2-----2-2-0-----|
a|---2---2---------3-0-!-2&3---3---------2-0-----!---2---2---------3-0-|
E|-0-------------------!---------------------3-2-!-0-------------------|

D F#
e|--------------___----------!-----------------------|
b|-------------1-3-1---------!-----------------------|
g|---------0---------0-------!---------1-----1-------|
d|-----2-----2---------2&4-4-!-----2-----2-----2-----|
a|-2&3---3-------------3&5-5-!---2---2-----2-----2&5-|
E|---------------------------!-0---------------------|


Part A :(chords only)



E B(VII) C#m(IX) B(7) A(V)
Some-times I feel__ like I dont have a partner

E B(VII) C#m(9) A(V)
Some-times I feel__ like my only friend

N.C. E B C#m B A
is the cit-y I live__ in, the city of angels

E B C#m A Emaj7
Lone-ly as I___ am, to_gether we cry



E B C#m B A
I drive on the streets__, 'cause ...

E B C#m A
I walk through the hills__ 'cause she ...

E B C#m B A
She sees my good deeds__ and she ...

E B C#m A Emaj7(let ring)
I nev-er wor-ried now ...




F#m(IX) E B(XIV) F#m(XIV)
I don't ev-er want to feel____________ ...

F#m(IX) E B(XIV) F#m(XIV)
Take me to the place I love....
(bu bölüm hep aynı akorlara ait)

nakarat tamamen btab ve bas la oluşmaktadır...
 
B

badem

Guest
Ynt: Gitar Akor Ve Tabları (Yabancı Şarkılar)

Cat Stevens - Father And Son

(Father)
-- G D C Am7
It's not time to make a change, just relax, take it easy,
G Em
You're still young, that's your fault
Am D
There's so much you have to know.
G D Am7
Find a girl,settle down, if you want you can marry
G Em Am D
Look at me, I am old but I am happy.

G D C Am7 G
I was once like you are now,and I know it's not easy to be calm
Em Am D
When you've found something going on.
G D C Am7
But take your time, think a lot, think of every thing you've got
G Em
For you will still be here tomorrow
G C G C
But your dreams may not.

(Son)
G D C Am7
How can I try to explain? When I do he turns away again,
G Em Am D
It's always been the same, same old story.
G D C Am7
From the moment I could talk I was ordered to listen
G Em D G
Now there's a way, and I know that I have to go away
D C G C G C
I know I have to go.

(Father)
G D C Am7
It's not time to make a change, just sit down, take it slowly,
G Em
You're still young, that's your fault,
Am D
There's so much you have to go through.
G D & Am7
Find a girl, settle down, if you want you can marry,
G Em Am D
Look at me, I am old but I am happy.

(Son)
G D C Am7
All the times that I've cried, keeping all the things I knew inside,
G Em Am D
It's hard, but it's harder to ignore it.
G D C Am7
If they were right I'd agree, but it's them, they know not me,
G Em D G
Now there's a way and I know that I have to go away
D C G
I know I have to go.
 
B

badem

Guest
Ynt: Gitar Akor Ve Tabları (Yabancı Şarkılar)

Cat Stevens - Lady D'arbanville

-- Em & D
| My lady D'arbanville
| & & & Em
| Why do you sleep so still
| & Em & D
A > | I'll wake you tomorrow
| & Bm
| And you will be my fill
| & Em
| Yes you will be my fill

Em & D
| My lady D'arbanville
| & & & Em
| Why does it grieve me so
| & & & D
B > | But your heart seems so silent
| & Bm
| Why do you breathe so low
| & Em
| Why do you breathe so low


**** A *****

Em & D
My Lady D'Arbanville
& & & Em
You look so cold tonight
& Em & D
Your lips feel like winter
& Bm
Your skin has turned to white
& Em
Your skin has turned to white

**** A *****

**** B *****

Em & & D
I loved you my lady
& & & Em
Though in your grave you lie
& G & D
I'll always be with you
& Bm
This rose will never die
& Em
This rose will never die
 
B

badem

Guest
Ynt: Gitar Akor Ve Tabları (Yabancı Şarkılar)

Cat Stevens - Moonshadow


C C4 C F G7 C G C
I'm bein' followed by a moonshadow, moonshadow moonshadow
C C4 C F G7 C G C
Leapin' and hoppin' on a moonshadow, moonshadow moonshadow

F C F C
And if I ever lose my hands
F C F G
Lose my power, lose my hands
F C F C Dm G7 C E7 Am
Oh,if I ever lose my hands, o-oo--
Dm7 G7 C
I won't have to work no more
F C F C
And if I ever lose my eyes
F C F G
If my colour all runs dry,
F C F C Dm G7 C E7 Am
Yes if I ever lose my eyes, o-oo--
Dm7 G7 C
I won't have to cry no more. Yes,

C C4 C F G7 C G C
I'm bein' followed by a moonshadow, moonshadow moonshadow
C C4 C F G7 C G C
Leapin' and hoppin' on a moonshadow, moonshadow moonshadow

F C F C
And, if I ever lose my legs
F C F G
I won't moon and I won't beg,
F C F C Dm G7 C E7 Am
Oh, if I ever lose my legs, o-oo--
Dm7 G7 C
I won't have to walk no more.
F C F C
And if I ever lose my mouth
F C F G
And my teeth, north and south
F C F C Dm G7 C E7 Am
Yes, if I ever lose my mouth, o-oo--
Dm7 G7 & C
I won't have to talk.

C C C4 C F G7 C G C

D G
Did it take long to find me?
D G
I asked the faithful light
D G
Did it take long to find me?
D G G7
And are you gonna stay the night, oh


C C4 C F G7 C G C
I'm bein' followed by a moonshadow, moonshadow moonshadow
C C4 C F G7 C G C
Leapin' and hoppin' on a moonshadow, moonshadow moonshadow
 
B

badem

Guest
Ynt: Gitar Akor Ve Tabları (Yabancı Şarkılar)

Cat Stevens - Morning Has Broken

|D |G |A |F# |Bm |G7 |C |F |C |

-- C Dm G F C
Morning has broken, like the first morning
& Em Am Dsus D G &
Blackbird has spoken, like the first bird
F & C Am D
Praise for the singing, praise for the morning
G C F
Praise for them springing
G7 C F G E Am G C G7sus
Fresh from the world.

-- C Dm G F C
Sweet the rain's new fall, sunlit from heaven
& Em Am Dsus D G &
Like the first dew fall, on the first grass.
C F & C Am D
Praise for the sweetness, of the wet garden.
G C F
Sprung in completeness,
G7 C F G E Am F# Bm G D A7'D D
Where his feet pass.

-- D Em A G D
Mine is the sun light, mine is the morning
& F#m Bm
Born of the one light
E7 A &
Edensaw play.
D G & D Bm E
Praise with elation, praise ev'ry morning
A D G A7 D G A F# Bm G7 C F C
God's recrea-tion of the new day


-- C Dm G F C
Morning has broken, like the first morning
& Em Am Dsus D G &
Blackbird has spoken, like the first bird
C F & C Am D
Praise for the singing, praise for the morning
G C F
Praise for them springing
G7 C F G E Am F# Bm G D A7'D D
Fresh from the world.
 
B

badem

Guest
Ynt: Gitar Akor Ve Tabları (Yabancı Şarkılar)

Cat Stevens - Sad Lisa

Am & & G F &
She hangs her head and cries in my shirt
G(Em) Am G C &
She must be hurt very badly
& G Am D &
Tell me what's making you sadly
Am D G F &
Open your door don't hide in the dark
G(Em) Am G C &
You're lost in the dark you can trust me
& G Am D & & &
'Cause you know that's how it must be
Am D G Am &
Lisa Lisa, sad Lisa Lisa

Am G Am G

Am & G F &
Her eyes like windows tricklin' ra-in
G(Em) Am G C &
Upon her pain getting deeper
& G Am D &
Tho' my love wants to relieve her
Am D C F &
She walks alone from wall to wall
G Am G C &
Lost in a hall she can't hear me
& G Am D & &
Tho' I know she likes to be near me
Am D G Am &
Lisa Lisa, sad Lisa Lisa

Am G Am G

Am & G F &
She sits in a corner by the do-or
G(Em) Am G C &
There must be more I can tell her
& G Am D &
If she really wants me to help her
Am D G F
I'll do what I can to show her the way
Em G C &
And maybe I will free her
& G Am D & &
Tho' I know no one can see her
Am D G Am &
Lisa Lisa, sad Lisa Lisa

Am G Am G
 
B

badem

Guest
Ynt: Gitar Akor Ve Tabları (Yabancı Şarkılar)

Cat Stevens - Wild World

Am D7 G
Now that i've lost every thing to you
G Cmaj7 F
You say you wanna start something new
F Dm E
And it's breaking my heart you're leaeving
E
Baby I'm grievinAm D7 G
But if you want to leave take good careWild World
Cat Stevens
Am D7 G
Now that i've lost every thing to you
G Cmaj7 F
You say you wanna start something new
F Dm E
And it's breaking my heart you're leaeving
E
Baby I'm grievinAm D7 G
But if you want to leave take good care
G Cmaj7 F
Hope you have a lot of nice things to wear
F Dm E G7
But then a lot of nice things turn bad out there
C G Am F
Oh baby baby it's a wild world
G F C
It's hard to get by just upon a smile
C G Am F
Oh baby baby it's a wild world
G F C D E
I'll always remember youlike a child, girl
Am D7 G
You know i've seen a lot of what the world can do
G Cmaj7 F
And it's breaking my heart in two
F Dm E
Because I never want ot see you sad girl
E
Don't be a bad girl
Am D7 G
But if you want to leave take good care
G Cmaj7 F
Hope you make a lot of nice friends out there
F Dm E G7
But just remember theres a lot of bad out there
C G Am F
Oh baby baby it's a wild world
G F C
It's hard to get by just upon a smile
C G Am F
Oh baby baby it's a wild world
G F C D E Am D7 G Cmaj7 F Dm7
I'll always remember youlike a child, girl
Am D7 G Cmaj7 F Dm7
E Am
Baby I love you
Am D7 G
But if you want to leave take good care
G C F
Hope you make a lot of nice friends out there
F Dm E G7
But just remember theres a lot of bad out there
 
B

badem

Guest
Ynt: Gitar Akor Ve Tabları (Yabancı Şarkılar)

Black Eyed Peas - Pump İt(Tab)

------------------------------------------------------------
------------------------------------------------------------
------------------------------------------------------------
2-3-6-7-9-10-12-10-9(uzun)*2----10-9-10-9-7-9-7-9-7-6(uzun)
-----------------------------------------------------------
-----------------------------------------------------------


------------------------------------------------------------
------------------------------------------------------------
------------------------------------------------------------
9-7-9-7-6-7-6-7-6-3-2(uzun)---------------------------------
------------------------------------------------------------
------------------------------------------------------------
 
B

badem

Guest
Ynt: Gitar Akor Ve Tabları (Yabancı Şarkılar)

Blue - All Rise

Intro: 2kez

Dm F Bb C
--E-------0---------------------------------0-1-0---
--B----3----3--1----------------1------1-3----------
--G--2-----------2-----2-0---------3----------------
--A-------------------------8-----------------------



C Dm
Your honour please
Am
Gotta believe what I say (say)
Dm
What I will tell (tell)
C
Happened just the other day (day)
Dm
I must confess (confess)
Am
'Cos I've had about enough (enough)
Dm
I need your help (help)
C
Got to make this here thing stop (stop)

Dm
Baby I swear I tell the truth (uhuh)
F C
About all the things you used to do (come on)
Dm
And if you thought you had me fooled
F C
I'm tellin' you now objection overruled
Here we go (oh baby)

Nakarat :
Dm
One for the money and the free rides
F
It's two for the lie that you denied
Bb
All rise (all rise)
C
All rise (all rise, all rise)
Dm
Three for the calls you've been making
F
It's four for the times you've been faking
Bb
All rise (I'm gonna tell it to your face)
C
All rise (I rest my case)

(aynı akorlarla):

You're on the stand (stand)
With your back against the wall (wall)
Nowhere to run (run)
And nobody you can call (call) oh no
I just can't wait (wait)
Now the case is open wide (wide)
You'll try to pray (pray)
But the jury will decide (decide)

Baby I swear I tell the truth (uhuh)
About all the things you used to do
And if you thought you had me fooled (come on)
I'm tellin' you now objection overruled
Oh baby

Nakarat tekrar

(sürekli Dm ile):
So step back 'cos you don't know this cat
I know deep down that you don't want me to react
I lay low leaving all my options open
The decision of the jury has not been spoken
Step in my house you find that your stuff has gone (gone)
But in reality to whom does the stuff belong
I bring you into court to preach my order
And you know that you overstep the border, uhuh

It's two for the lie that you denied (ooooh)
All rise (all rise)
All rise (all rise, all rise)
Three for the calls you've been making (yeah)
It's four for the times you've been faking
All rise (all rise, all rise)
All rise (all rise, all rise)

One for the money and the free rides (what you say)
It's two for the lie that you denied (can't you pay)
All rise (what you've done)
All rise
Three for the calls you've been making (what you say)
It's four for the times you've been faking (can't you pay)
All rise (what you've done)
All rise (where you've gone)

One for the money and the free rides
It's two for the lie that you denied (ohhh)
All rise (ohhh) all rise (uhuh uhuh)
Three for the calls you've been making
It's four for the times you've been faking
I said all rise
I'm gonna tell it to your face
All rise, I rest my case (uhuh uhuh)
 
B

badem

Guest
Ynt: Gitar Akor Ve Tabları (Yabancı Şarkılar)

Blue - Best In Me (Tab)

Intro

E---------------------------------------------------------------------------
A--5--------0-------------5-----------0-------------------------------------
D----5---------2-------------5-----------2----------------------------------
G------3---------2--------------3----------2--------------------------------
B--------3----------1-------------3----------1------------------------------
E--------3----------0-------------3----------0------------------------------


From the moment I met you I knew youd be mine
You touched my hand and I knew this was gonna be our time

BM7 E7
I dont ever want to lose this feeling
F G
I dont want to spend a moment apart



Cos you bring out the best in me
Like no one else can do
Thats why Im by your side
And thats why I love you

E---------------------------------------------------------------------------
A--5--------0-------------5-----------0-------------------------------------
D----5---------2-------------5-----------2----------------------------------
G------3---------2--------------3----------2--------------------------------
B--------3----------1-------------3----------1------------------------------
E--------3----------0-------------3----------0------------------------------


Every day that Im here with you I know that It feels right (So right)
Cos Ive just got to be near to you every day and every night (Every Night)



BM7 E7
And you know that we belong together
F G
It just had to be you and me

Nakarat:

Cos you bring out the best in me
Like no one else can do
Thats why Im by your side
And thats why I love you

Geçiş (nakaratla aynı akorlar)

BM7 E7
And you know that we belong together
F G
It just had to be you and me

Cos you bring out the best in me
Like no one else can do
Thats why Im by your side........

You bring out the best in me
Like no one else can do
Thats why Im by your side
And thats why I love you (love you, love you, love you Baby)

You bring out the best (you bring out the best in me) the best in me
Like no one else can do.....
And thats why Im by your side

And thats why I love you...
 
B

badem

Guest
Ynt: Gitar Akor Ve Tabları (Yabancı Şarkılar)

Blue - Guilty

Intro : F# Badd9 F# Badd9



F# Badd9
I never want to play the games that people play
F# Badd9
I never want to hear the things they gotta say
F# Badd9
I've found everything i need
E G#m
I never wanted anymore then i could see
E G#m
I only want you to believe...


F#
I'f it's hard to tell the truth
Badd9
What am i supposed to do?
F# G#m
All i wanna do, is speak my mind
F#
If it's wrong to do whats right
Badd9
I'm prepared to testify
E G#m
I'f loving you with all my hearts a crime
F#
Then i'm guilty



I wanna give you, all the things you've never had
Don't try to tell me how he treats you isn't bad
I need you back in my life
I never wanted, just to be the other guy
I never want to, live a lie


G#m B
Girl i've fallowed my heart
F#
Followed the truth
D#m
Right from the start
G#m
That led me to you
B
Please don't leave me this way
C#m
I'm guilty, that all i have to say
 
B

badem

Guest
Ynt: Gitar Akor Ve Tabları (Yabancı Şarkılar)

Blue - Sorry Seems To Be The Hardest Word

Intro:Gm2, F2, Eb2, D2,

Adim Dsus4 D
Sorry seems to be (oooooh) the hardest word
Gm, Gm7
Uh huh
Cm
Na na na nananana
F, F7, Bb, Adim
D
That¡¦s right


Gm Gm7 Cm7 Cm,Cm7
What I gotta do, to make you love me?
F Fm7 Bb Adim Dsus4 D
What I gotta do to make you care?
Gm Gm7 Cm7 Cm,Cm7
What do I do when lightening strikes me?
F Fm7 Bb Adim Dsus4 D
And awake to find that you're not there.
Gm Gm7 Cm7 Cm,Cm7
What I gotta do to make you want me?
F Fm7 Bb Adim Dsus4 D
What I gotta do to be heard (oh)
Gm Gm7 Cm7 Cm,Cm7
What do I say when it's all over? Babe!
F Fm7 Bb F
Sorry seems to be the hardest word! (That¡¦s right)

Nakarat::
Gm GmM7
It's sad, so sad
Gm7 C2
It's a sad sad situation
Eb Dm D Gm Adim D
And it's gettin' more and more ab-surd
Gm GmM7
It's sad, so sad
Gm7 C2
Why can't we talk it over
Eb NC Eb NC
Always it seems to me
Dm Cm,NC Dsus4 D Gm
That sorry seems to be the hardest word


What do I do to make you want me?
What I gotta do to be heard?
What do I say when it's all over?
Sorry seems to be the hardest word.


It's sad(so sad) so sad(so sad)
It's a sad sad situation
And it's gettin' more and more absurd (um um)
It's sad(so sad) so sad(so sad)
Why can't we talk it over
Always seems to me (yo yo)
Sorry seems to be the hardest word (oahhhhhhhh yer)



Gm Gm7 Cm7 Cm Cm7
What do I do to make you love me (ohhhhhhhh)
F F7 Bb Ddim Asus4,A
What I gotta do to be heard
Gm Gm7 Cm7 Cm Cm7
What do I do when lightening strikes me, yeah
Adim D
What've I gotta do
Gm Cm
What've I gotta do
Ddim D
When sorry seems to be the hardest word
 
B

badem

Guest
Ynt: Gitar Akor Ve Tabları (Yabancı Şarkılar)

Blue - Stand Up As People

C G Am
All I hear is voices in the crowd
C G F
Though they only whisper though they frown
C G Am
People say "oh its such a shame"
C G F
Still they only look to pass the blame


Dm C G
If we can find a way to work things out
Dm C G
The only way to start is to start now


C G
When are we gonna stand up as people
Am G
Realise as people were all equal
C G
We dont want no world war sequel
F G
For the love of god think of the people
C G
When are we gonna stand up as people
Am G
Realise as people were all equal
C G
We dont want no world war sequel
F G
For the love of god think of the people

C G Am
Children always learn by what they see
C G F
So we gotta practise what we preach
C G Am
Don't you know its the game of life
C G F
We refuse when we choose to fight

Dm C G
If we can find a way to work things out
Dm C G
The only way to start is to start now


C G
When are we gonna stand up as people
Am G
Realise as people were all equal
C G
We dont want no world war sequel
F G
For the love of god think of the people
C G
When are we gonna stand up as people
Am G
Realise as people were all equal
C G
We dont want no world war sequel
F G
For the love of god think of the people

Dm C G
I pray before i sleep at night
Dm C G
That i'll wake to find a clear blue sky

C G
When are we gonna stand up as people
Am G
Realise as people were all equal
C G
We dont want no world war sequel
F G
For the love of god think of the people
C G
When are we gonna stand up as people
Am G
Realise as people were all equal
C G
We dont want no world war sequel
F G
For the love of god think of the people


C G
When are we gonna stand up as people
Am G
Realise as people were all equal
C G
We dont want no world war sequel
F G
For the love of god think of the people
C G
When are we gonna stand up as people
Am G
Realise as people were all equal
C G
We dont want no world war sequel
F G
For the love of god think of the people
 
Üst