Gitar Akor Ve Tabları (Yabancı Şarkılar)

B

badem

Guest
Desperado (tab)

e---------7-7---7-7--8-7-7-------8-7-7------------------------------------
B-------8--------------------8----------8--10-10--------------------------
G-----9-------------------------------------------------------------------
D-------------------------------------------------------------------------
A---7---------------------------------------------------------------------
E-------------------------------------------------------------------------

e--------------------7------------7---------------------------------------
B---7-8-10-10-10-10-----10-10-10-----10-10-7-8-8--------------------------
G-------------------------------------------------------------------------
D-------------------------------------------------------------------------
A-------------------------------------------------------------------------
E-------------------------------------------------------------------------

e---------7-7--7-7--8--7-7-----8-7-7--------------------------------------
B---8-10--------------------8---------8--10--10---------------------------
G-------------------------------------------------------------------------
D-------------------------------------------------------------------------
A-------------------------------------------------------------------------
E-------------------------------------------------------------------------

e--------------------7------------7---------------------------------------
B---7-8-10-10-10-10-----10-10-10-----10-10-7-8-8--------------------------
G-------------------------------------------------------------------------
D-------------------------------------------------------------------------
A-------------------------------------------------------------------------
E-------------------------------------------------------------------------

e---12-14-12-11---8-7---------12-14-12-11--8-7-7--11-11-12----------------
B----------------------10-8-----------------------------------------------
G-------------------------------------------------------------------------
D-------------------------------------------------------------------------
A-------------------------------------------------------------------------
E-------------------------------------------------------------------------
 
B

badem

Guest
Ynt: Gitar Akor Ve Tabları (Yabancı Şarkılar)

Evanescence - Bring Me To Life

Em
How can you see into
My eyes like open doors
Leading you down into my core
Where I've become so numb
Without a soul
My spirit sleeping somewhere cold
Until you find it there and lead it back home

(Em)
Wake me up
Wake me up inside
G
I can't wake up
Wake me up inside
D
Save me
Em
Call my name and save
Me from the dark
Wake me up
Bid my blood to run
G
I can't wake up
Before I come undone
D
Save me
Save me from the
Em
Nothing I've become

Em
Now that I know what
I'm without
You can't just leave me
Breathe into me and
Make me real
Bring me to life

Em
Wake me up
Wake me up inside
G
I can't wake up
Wake me up inside
D
Save me
Em
Call my name and save
Me from the dark
Wake
Bid my blood to run
G
I can't wake up
Before I come undone
D
Save me
Save me from the

E C
Nothing I've become
D E C
Bring me to life
D Em F# G B
Bring me to life
Am G
Frozen inside without
B
You touch without
Em F# G B Am
Your love darling only
G B
You are the life among
The dead

Em
All this time I can't
Believe I couldn't see
Kept in the dark but
You were there in front of me
I've been sleeping a
Thousand years it seems
Got to open my eyes to everything
Without a thought
Without a voice
Without a soul
Don't let me die here
There must be
Something more
Bring me to life

Em
Wake me up
Wake me up inside
G
I can't wake up
Wake me up inside
D
Save me
Call my name and save
Me from the dark
Wake me up
Bid my blood to run
G
I can't wake up
Before I come undone
D
Save me
Save me from the
E C
Nothing I've become
D Em
Bring me to life
I've been living a lie,
Em C
There's nothing inside
D Em
Bring me to life
 
B

badem

Guest
Ynt: Gitar Akor Ve Tabları (Yabancı Şarkılar)

Avril Lavigne - Girlfriend

intro & >N<
D5 A5 B5 F#5 G5 D
e|-----|-----|-----|--------|-------|-----|
B|-----|-----|-----|--------|-------|-----|
G|-----|-----|-----|--------|-------|-7---|
D|-0---|-7---|-9---|-4------|-5-----|-7---|
A|-0---|-7---|-9---|-4------|-5-----|-5---|
D|-0---|-7---|-9---|-4------|-5-----|-0---|


Intro

D5
Hey Hey You You
I don't like your girlfriend
No way No way
I think you need a new one
Hey Hey You You
D5-F#5-G5
I could be your girlfriend

D
Hey Hey You You
I know that you like me
No way No way
No, it's not a secret
Hey Hey You You
D5-F#5-G5
I want to be your girlfriend



D
You're so fine I want you mine You're so delicious
A5
I think about you all the time You're so addictive
B5 G5
Don't you know What I can do To make you feel alright
D
Don't pretend I think you know I'm damn precious
A5
And hell Yeah I'm the mother fucking princess
B5 G5
I can tell you like me too And you know I'm right



B5 F#5
She's like so whatever You can do so much better
A5
I think we should get together now
G5 A5
Well that's what everyone's talking about


D5 A5
Hey Hey You You
B5 G5
I don't like your girlfriend
D5 A5
No way No way
B5 G5
I think you need a new one
D5 A5
Hey Hey You You
Bm G5 D5-F#5-G5
I could be your girlfriend
D A5
Hey Hey You You
B5 G5
I know that you like me
D5 A5
No way No way
B5 G5
No, it's not a secret
D5 A5
Hey Hey You You
B5 G5 D5-F#5-G5
I want to be your girlfriend


D
I can see the way I see the way you look at me
A5
And even when you look away I know you think of me
B5 G5
I know you talk about me all the time Again and again
D
So come over here and tell me what I wanna hear
A5
Better, yeah, make your girlfriend disappear
B5 G5
I don't wanna hear you say her name ever again


D
In a second you'll be wrapped around my finger
'Cause I can, cause I can do it better
There's no other, so when's it gonna sink in
She's so stupid, what the hell were you thinking?
(Repeat)


Hey Hey!
 
B

badem

Guest
Ynt: Gitar Akor Ve Tabları (Yabancı Şarkılar)

Metallica - Nothing Else Matters Live

Metallica - Nothing Else Matters Live
Em D C G B A
------ ---2--- ------ --3--- --2--- -------
------ ---3--- ---1-- --3--- --2--- ---3---
------ ---2--- ------ ------ --2--- ---3---
--2--- ------- ---2-- ------ --4--- ---3---
--2--- ------- ---3-- --2--- --4--- -------
------ ------- ------ --3--- --2--- -------
(play this after every verse accept the verse before the chorus)
E ---------------
B ---------------
G ---------------
D ---------------
A ---------------
E ---3---2---0---

Em D C
So close no matter how far
Em D C
Couldnt be much more from the heart
Em D C
Forever trusting who we are
G B Em
And nothing else matters


Em D C
Never opened myself this way
Em D C
Life is ours we live it our way
Em D C
All these words I dont just say
G B Em
And nothing else matters


Em D C
Trust I seek and I find in you
Em D C
Every day for us something new
Em D C
Open mind for a different view
G B Em
And nothing else matters

(chorus):
C A D C
Never cared for what they do
A D C
Never cared for what they know
A D Em
But I know
(repeat first verse)
(repeat chorus)
(repeat second and third verse)

(ending):
C A D C
Never cared for what they say
A D C
Never cared for what they play
A D C
Never cared for what they do
A D C
Never cared for what they know
A D Em
But I know
(repeat first verse)
 
B

badem

Guest
Ynt: Gitar Akor Ve Tabları (Yabancı Şarkılar)

Evanescence - My Immortal

A C#m A C#m


A C#m
I'm so tired of being here
A C#m
Suppressed by all my childish fears
A
And if you have to leave
C#m
I wish that you would just leave
A
Cause your presence still lingers here
C#m F#m
And it won't leave me alone

C#m F#m
These wounds won't seem to heal
C#m F#m
This pain is just too real
C#m E
There's just too much that time cannot erase


CHORUS
F#m D E C#m
When you cried I'd wipe away all of your tears
F#m D E C#m
When you'd scream I'd fight away all of your fears
F#m D E C#m
I held your hand through all of these years
F#m D E
But you still have
A C#m A C#m
All of me

A
You used to captivate me
C#m
By your resonating light
A C#m
Now I'm bound by the life you left behind
A
Your face it haunts
C#m
My once pleasant dreams
A
Your voice it chased away
C#m F#m
All the sanity in me
C#m F#m
These wounds won't seem to heal
C#m F#m
This pain is just too real
C#m E
There's just too much that time cannot erase

[Chorus]

D F#m C#m D
I've tried so hard to tell myself that you're gone
F#m C#m
But though you're still with me
D E F#m D E C#m F#m D E C#m
I've been alone all along
 
B

badem

Guest
Ynt: Gitar Akor Ve Tabları (Yabancı Şarkılar)

Cranberries - Zombie

Em C
Another,head hangs lovely
G D
Child is slowly taken
Em C
When the violence,caused such silence
G D
Who are we mistaken?But you see
Em C
It's not me,it's not my family
G D
In your head,in your head they are fighting
Em
With their thanks,and their bombs
C
And their bombs,and their guns
G D
In your head,in your head they are criyng
Em C G D
In your head,in your head zombie zombie zombie
Em C G D
What's in your head,in your head zombie zombie zombie
Em C G D
Another mother's breaken,heart is taken over
Em C
When the violence causes silence
G D
We must be mistaken,it's the same
Em C
Old theme since 1916
 
B

badem

Guest
Ynt: Gitar Akor Ve Tabları (Yabancı Şarkılar)

love story

E||------------------|
B||------------------|
G||------------------|
D||------------------|
A||------------------|
E||------------------|


E||----------6--6--------|----------6--6--------|----------5--5--------|
B||----3--3--------------|----------------------|----------7--7--------|
G||-------------7--------|----7--7-----7--------|----7--7-----5--------|
D||----------------------|----------------------|----------------------|
A||----------------------|----------------------|----------------------|
E||----------------------|----------------------|----------------------|

--6--------6--6--------|----------6--6-----------|-----------5--5--------|
-----------------------|-------------------------|-----------------------|
-----7--7--------------|----7--7--------7--8--7--|--5--5--5--------------|
-----------------------|-------------------------|-----------------------|
-----------------------|-------------------------|-----------------------|
-----------------------|-------------------------|-----------------------|

----------5--5-----------|-----------3--3--------|----------3--3-----------|
-------------------3-----|-----------------------|-------------------1-----|
----5--5--------5-----5--|--3--3--3--------------|----3--3--------3-----3--|
-------------------------|-----------------------|-------------------------|
-------------------------|-----------------------|-------------------------|
-------------------------|-----------------------|-------------------------|


-----------2--2--------|------3----5---------|-------------------|------------------|
-----------------------|----------------4----|--3----------------|------------------|
--2--2--2--------------|---------------------|-------------------|------------------|
-----------------------|---------------------|-------------------|------------------|
-----------------------|---------------------|-------------------|------------------|
-----------------------|---------------------|-------------------|------------------|

--6--------6--6--------|----------6--6-----------|-----------5--5--------|
-----------------------|-------------------------|-----------------------|
-----7--7--------------|----7--7--------7--8--7--|--5--5--5--------------|
-----------------------|-------------------------|-----------------------|
-----------------------|-------------------------|-----------------------|
-----------------------|-------------------------|-----------------------|



----------5--5-----------|-----------3--3--------|----------3--3-----------|
-------------------3-----|-----------------------|-------------------1-----|
----5--5--------5-----5--|--3--3--3--------------|----3--3--------3-----3--|
-------------------------|-----------------------|-------------------------|
-------------------------|-----------------------|-------------------------|
-------------------------|-----------------------|-------------------------|



-----------2--2--------|------3----5----2----|--7----------------|------8----10---------|
-----------------------|---------------------|-------------------|-----------------8----|
--2--2--2--------------|---------------------|-------------------|----------------------|
-----------------------|---------------------|-------------------|----------------------|
-----------------------|---------------------|-------------------|----------------------|
-----------------------|---------------------|-------------------|----------------------|



--11-------------8-----|-----5--5------8--11--8--|--10--------------10------|
--------------8-----8--|--8----------------------|--------------------------|
-----------------------|-------------------------|--------------10------10--|
-----------------------|-------------------------|--------------------------|
-----------------------|-------------------------|--------------------------|
-----------------------|-------------------------|--------------------------|



----------------6--10--6--|--8----------5--8--5--|--6------8--10-----6--10--|
------8--8----------------|----------------------|----------------8---------|
--10----------------------|----------------------|--------------------------|
--------------------------|----------------------|--------------------------|
--------------------------|----------------------|--------------------------|
--------------------------|----------------------|--------------------------|



--11-----------------6--|--6----5------6--8-----|----------------------|
------------------8-----|-----------------------|-------------------6--|
--------------10--------|--------------------8--|--7----------7--8--7--|
------------------------|-----------------------|----------------------|
------------------------|-----------------------|----------------------|
------------------------|-----------------------|----------------------|



--5----3----3--1--------|-------------0--3-----|--2----------------|------------------|
------------------4--3--|--1----------------4--|-------------------|------------------|
------------------------|--5-------------------|-------------------|------------------|
------------------------|----------------------|-------------------|------------------|
------------------------|----------------------|-------------------|------------------|
------------------------|----------------------|-------------------|------------------|



--6--------6--6--------|----------6--6-----------|-----------5--5--------|
-----------------------|-------------------------|-----------------------|
-----7--7--------------|----7--7--------7--8--7--|--5--5--5--------------|
-----------------------|-------------------------|-----------------------|
-----------------------|-------------------------|-----------------------|
-----------------------|-------------------------|-----------------------|



----------5--5-----------|-----------3--3--------|----------3--3-----------|
-------------------3-----|-----------------------|-------------------1-----|
----5--5--------5-----5--|--3--3--3--------------|----3--3--------3-----3--|
-------------------------|-----------------------|-------------------------|
-------------------------|-----------------------|-------------------------|
-------------------------|-----------------------|-------------------------|



-----------2--2--------|------3----5----2----|--3--------15--------|--------------------|
-----------------------|---------------------|---------------------|--------------------|
--2--2--2--------------|---------------------|---------------------|--12----------------|
-----------------------|---------------------|---------------------|--------------------|
-----------------------|---------------------|---------------------|--------------------|
-----------------------|---------------------|---------------------|--------------------|
 
B

badem

Guest
Ynt: Gitar Akor Ve Tabları (Yabancı Şarkılar)

Enrique Iglesias - Bailamos

Am F
Tonight we dance
G E
I lay my life in your hands
Am F
We take the floor
G E
Nothing is forbidden anymore
Am
Don`t let the world in outside
G
Don`t let a moment go by
C G E
Nothing can stop us tonight


chorus
Am G F
Bailamos, let the rhythm take you over
Am G F
Bailamos, te quiero amor mio
Am G F
Bailamos wanna live this night forever
Am G E
Bailamos te quiero amor mio te quiero


Tonight I`m yours
We can make it happen,
I`m so sure
Now I`m letting go
There is something
I think you should know


I won`t be leaving your side
We`re gonna dance through the night
I wanna reach for the stars

chorus repeat
Am G F
Ooooo Tonight we dance
Am G F
Ooooo Like no tomorrow
Am G F
Ooooo If you will stay with me
G
Te quiero mi amor
 
B

badem

Guest
Ynt: Gitar Akor Ve Tabları (Yabancı Şarkılar)

Enrique Iglesias - Hero

G*Em*C*D*

G Em
Would you dance if I asked you to dance?
C D
Would you run and never look back?
G Em
Would you cry if you saw me crying?
C D G
Would you save my soul tonight?
G EM
Would you tremble if I touched your lips
C D
Would you laugh oh please tell me this
G EM
Now would you die for the one you love
C D G
Hold me in your arms tonight


G D C
I can be your hero baby
G D C
I can kiss away the pain
G D C
I will stand by you forever
G D C
You can take my breath away

G EM
Would you swear that you'll always be mine
C D
Would you lie would you run back
G
Am I in too deep
EM
Have I lost my mind
C D G
I don't care you're here tonigth


G D C
I can be your hero baby
G D C
I can kiss away the pain
G D C
I will stand by you forever
G D C
you can take my breath away
 
B

badem

Guest
Ynt: Gitar Akor Ve Tabları (Yabancı Şarkılar)

Backstreet Boys - All I Have To Give

Intro: G A Bm (2x)

G A Bm G A Bm
I dont know what he does to make ...smile
G A Bm D G A D
I dont have fancy cars to get ...
G A Bm G A Bm
I dont care if he buy's you ....heart ?
G A Bm G A D
I dont know but if you were ....


NAKARAT:
G A Bm G A Bm
But my love is all I have to ...
G A D G A Bm
I wish I could give the ...


NAKARATI TEKRARLA

BRIDGE:
G A Bm D
(Hey girl) Hey girl , I don't ...
G A D G A D
All the money in the world ...

I love you......................................( G,D,G,D )
D G
My love is all!!! ( i have to give )



( NAKARATI TEKRARLA )
 
B

badem

Guest
Ynt: Gitar Akor Ve Tabları (Yabancı Şarkılar)

Backstreet Boys - Drowning

A E
Don't pretend your sorry i know your not
F#m D
you know got the power to make me weak inside
A E
girl you leave me breathless, but its ok
F#m D
you are my survival now hear me say


Bm D F#m
Cant imagine life without your love
F#m D E
even forever don't seem like long enough
A E F#m
cuz every time I breath to take you in, and my heart beats again
D A
baby I cant help it, you keep me drowning in your love
A E F#m
and every time I try to rise above im swept away by love
D A
baby I cant help it you keep me drowning in your love




Maybe im a drifter maybe not
cuz im on the safety of floating freely in your arms
and I don't need another life line its not for me
cuz only you can save me
cant you see



Bm D F#m D E
no one pull me under cover me with dreams
love your mouth to mouth now and you know i cant resist
cuz you're the air that I breathe
 
B

badem

Guest
Ynt: Gitar Akor Ve Tabları (Yabancı Şarkılar)

Backstreet Boys - Incomplete

Intro: Em Bm D A x2

Verse 1

Em Bm
Empty spaces
D A
Fill me up with holes
Em Bm
Distant faces
D A
With no place left to go
Em Bm
Without you within me
D A
I can't find no rest
Em Bm
Where I'm going
D A G
Is anybody's guess

Bm D
I've tried
A
To go on like I never knew you
Bm D
I'm awake
A
But my world is half asleep
Bm D
I pray
A
For this heart to be unbroken
G Bm A
But without you all I'm going to be is

Incomplete

Break:

Em Bm D A x2

Em Bm
Voices tell me
D A
I should carry on
Em Bm
But I am swimming
D A Em
In an ocean all alone
Bm
Baby, my baby
D A
It's written on your face
Em Bm
You still wonder
D A G
If we made a big mistake

Bm D
I've tried
A
To go on like I never knew you
Bm D
I'm awake
A
But my world is half asleep
Bm D
I pray
A
For this heart to be unbroken
G Bm A
But without you all I'm going to be is
G
Incomplete

Bm A
I don't mean to drag it on
G
But I can't seem to let you go
Bm A
I don't wanna make you face this world alone

Break: Em Bm D A x2

Bm D
I've tried
A
To go on like I never knew you
Bm D
I'm awake
A
But my world is half asleep
Bm D
I pray
A
For this heart to be unbroken
G Bm A
But without you all I'm going to be is

Incomplete

Outro: Em Bm D A x3 (fade out)
 
B

badem

Guest
Ynt: Gitar Akor Ve Tabları (Yabancı Şarkılar)

Backstreet Boys - Quit Playing Games

INTRO A D G D

A D G D
Even in my heart I feel ...
A D G D
deep within my soul I see , ...
A D
Sometime's I wish I ...
G D
Impossible as ...
A
but I wish ...
D G
so bad , b...

NAKARAT:
A
Quit playing with my ...
D
with my heart ( ...
G
with my ....
A
with ...
A
Is should have ....

--

Bm G D Bm
Baby , baby , the ....
G D
can't keep on ...
Bm G D
oh baby baby , ....
G D
let's stop ...
 
B

badem

Guest
Ynt: Gitar Akor Ve Tabları (Yabancı Şarkılar)

Backstreet Boys - Shape Of My Heart

INTRO: D4-D-D4-D-A4-A-G..yeah yeah

VERSE 1:
Baby please.....
D4-D-D4-D-A4-A-G-G (4x)

NAKARAT:
looking Back all...
D-G-A4-G-A4
..my heart
D

VERSE 2:
Sadness.......
D4-D-D4-D-A4-A-G-G

NAKARAT (tekrar)

I'm here.....
Bm-A
D-G
Bm-A
D-G
I don't...
G-A4
G-A4-D

BRAKE

I've.....
E-A-B4-A-B4
 
B

badem

Guest
Ynt: Gitar Akor Ve Tabları (Yabancı Şarkılar)

Backstreet Boys - Show Me The Meaning Of Being Lonely

Show Me The Meaning Of Being Lonely
Am F G
Show me the meaning of being lonely
Am F G
So many words for the broken heart
Am F G
It's hard to see in a crimson love
F
So hard to breathe
G
Walk with me, and maybe
AM F G
Nights of light so soon become
Am F G
Wild and free I could feel the sun
F
Your every wish will be done
F Am
They tell me

Am F G
Show me the meaning of being lonely
Am F G
Is this the feeling I need to walk with
G F Am
Tell me why I can't be there where you are
F Am
There's something missing in my heart

Life goes on as it never ends
Eyes of stone observe the trends
They never say forever gaze upon me
Guilty roads to an endless love (endless love)
There's no control
Are you with me now?
Your every wish will be done
They tell me



There's nowhere to run
I have no place to go
Surrender my heart, body, and soul
How can it be
You're asking me
To feel the things you never show

You are missing in my heart
Tell me why I can't be there where you are
 
B

badem

Guest
Ynt: Gitar Akor Ve Tabları (Yabancı Şarkılar)

Marc Anthony - When I Dream At Night

intro:{ Dm-Gm-F-C-Bb Dm-Gm-F-C-Bb F-A }x2


I have been in love and been alone
Dm Gm
I have traveled over many miles to find a home
F C Bb A

There's that little place inside of me
Dm Gm
That I never thought could take control of everything
F C Bb A

But now I just spend all my time with anyone
Gm F C
Who makes me feel the way she does
Bb A


Chorus

'Cause I only feel alive when I dream at night
Dm Gm
Even though she's not real it's all right
F C Bb

'Cause I only feel alive when I dream at night
Dm Gm
Every move that she makes holds my eyes
F c Bb
And I fall for her every time
F A


I've so many things I want to say
Dm Gm
I'll be ready when the perfect moment comes my way
F C Bb A

I had never known what's right for me
Dm Gm
Till the night she opened up my heart and set it free
F C Bb A

But now i just spend all my time with anyone
Gm F C
Who makes me feel the way she does
Bb A

Repeat chorus

Now i just spend all my time with anyone
Gm F C
Who makes me feel the way she does
Bb A
 
B

badem

Guest
Ynt: Gitar Akor Ve Tabları (Yabancı Şarkılar)



Celine Dion - My Hearth Will Go On.

Intro:

C#m B A B {x2}



Verse 1:

E B A B
Every night in my dreams, I see you, I feel you

E B A
That is how I know you, go on

E B A B
Far across the distance and spaces between us

E B A
You have come to show you, go on



Chorus 1:

C#m B A B
Near, far, wherever you are

C#m B A B A
I believe that the heart does go on

C#m B A B
Once more you open the door

C#m B A B E
And you're here in my heart and my heart will go on and on



Verse 2:

(Same chords and rhythm as Verse 1)


Love can touch us one time and last for a lifetime

And never let go 'til we're gone

Love was when I loved you, one time I hope to

In my life will always go on



Chorus 2:

C#m B A B
Near, far, wherever you are

C#m B A B A
I believe that the heart does go on

C#m B A B
Once more you open the door

C#m B A B C#m
And you're here in my heart and my heart will go on and on



Interlude:

(C#m) B A B
hmmm

C#m B A B C#m



Chorus 3:

G# D# C# D#
You're here, there's nothing I fear

G# D# C# D# C#
And I know that my heart will go on

G# D# C# D#
We'll stay forever this way

G# D# C# D# G# D#
You are safe in my heart and my heart will go on and o-----n
C#

G# D# C#

G# D# (D#) C#


Coda:

G# D# C# D#

G# D# C# D#
hmmm

G#
 
B

badem

Guest
Ynt: Gitar Akor Ve Tabları (Yabancı Şarkılar)

Hoobanstank - The Reason

E C#m
I'm not a perfect person

E
There are many things I wish I didn't do

C#m
But I continue learning

A
I never meant to do those things to you

B
and so I have to say before I go

E2
that I just want you to know



Chorus 1:

C#m A
I've found a reason for me, to change who I used to be

B E
a reason to start over new, and the reason is you



Verse 2:

C#m
I'm sorry that I hurt you

E
It's something I must live with everyday

C#m
and all the pain I put you through

A
I wish that I could take it all away

B
and be the one who catches all your tears

E2
thats why I need you to hear



Chorus 2:

C#m A
I've found a reason for me, to change who I used to be

B Dsus2
a reason to start over new, and the reason is you



Bridge:

E2
and the reason is you

Dsus2
and the reason is you

E2
and the reason is you



Verse 3:

E C#m
I'm not a perfect person

A
I never meant to do those things to you

B
and so I have to say before I go

E2
that I just want you to know


Repeat Chorus 1:

Chorus 3:

C#m
I've found a reason to show

A
a side of me you didn't know

B
a reason for all that I do

E
and the reason is you
 
B

badem

Guest
Ynt: Gitar Akor Ve Tabları (Yabancı Şarkılar)

Whitney H.&Enrique I. - Could I Have This Kiss Forever

Am Dm [x2]

Verse 1:=20
Am Dm
Over and over... i've looked....
G Am
You were all.... you have captured...
Am Dm
I want to hold... i want to be.....
G Am
I never want....let go...
Dm Am
I wish... kiss would never....
F E
I need to know

Chorus:
Am Dm
Could i..... could i look....
G F E
Could i... together?
Am Dm
Could i hold you close... could i hold you for...
F E Am
Could i...could i...forever

Verse 2:
Am Dm
Over and over... i've dreamed of....
G Am
Now you're here.... you are next to me...
Am Dm
I want to hold... to touch you.....
G Am
Make you want....no one but me...
Dm Am
I wish... kiss would never....
F E
Oh baby please...

Chorus

Bridge:
Dm Am Dm
I dont want... by without you... side
C G =20
I just want... all my days
Am Dm
Spent being... please....
F E
And baby.... oh by the way....
 
B

badem

Guest
Ynt: Gitar Akor Ve Tabları (Yabancı Şarkılar)

Westlife - Uptown girl

D G D Em A

D
Uptown girl
G D
She's been living in her uptown world
Em A D
I bet she never had a backstreet guy
G D
I bet her mama never told her why

Em A D
I'm gonna try for an uptown girl
G D
She's been living in her white bread world
Em A D
As long as anyone with hot blood can
G D
And now she's looking for a downtown man
Em A
That's what I am

Bb Gm
And when she knows what
Cm F
She wants from her time
Bb Gm
And when she wakes up
Cm F
And makes up her mind

G Em
She'll see I'm not so tough
Am
Just because
A D
I'm in love with an uptown girl

G D
You know I've seen her in her uptown world
Em A D
She's getting tired of her high class toys
G D
And all her presents from her uptown boys
Em A
She's got a choice

F G Em Am F G Em A

D
Uptown girl
G D
You know I can't afford to buy her pearls
Em A D
But maybe someday when my ship comes in
G D
She'll understand what kind of guy I've been
Em A
And then I'll win



Bb Gm
And when she's walking
Cm F
She's looking so fine
Bb Gm
And when she's talking
Cm F
She'll say that she's mine

G Em
She'll say I'm not so tough
Am
Just because
A
I'm in love

D
With an uptown girl
G D
She's been living in her white bread world
Em A D
As long as anyone with hot blood can
G D
And now she's looking for a downtown man
Em A
That's what I am

E
Uptown girl
A E
She's my uptown girl
F#m B
You know I'm in love
E
With an uptown girl
A E
My uptown girl
F#m B
You know I'm in love
E
With an uptown girl
A E
My uptown girl

D: 000232
G: 320003
Em: 022000
A: 002220
Bb: 113331
Gm: 355333
Cm: 335543
F: 133211
Am: 002210
E: 022100
F#m: 244222
B: 224442
 
Üst