Gitar Akor Ve Tabları (Türkçe Şarkılar)

B

badem

Guest
Ynt: Gitar Akor Ve Tabları (Türkçe Şarkılar)

MFÖ - Sakın Gelme

Am C
Sakın gelme sözlerim kayıp
G E
Ayıp ediyorum kendime
Am G E
Bir sızı var içimde...ölesim tuttu
Am C G E
Yaşıyorum gürül gürül kaç gündür
Am G Am
Uyku tutmuyor sakın gelme

Am G }
Sakın gelme hazır değilim }
Dm }
Deliyim kaç gündür } (A)
C G E }
Lodosum tuttu poyrazım soğuk }

Am G }
Sakın gelme dönesim yok }
Dm }
Çok uzaktayım çok } (B)
C G }
Bir şarkı var aklımda }
E }
Söylemesi ayıp }

Am G }
Sözleri kayıp }
Am G }
Kaç zamandır dilimde } (x2)
F E Am }
Sakın söyleme }

Nakarat (A)
Nakarat (B)
 
B

badem

Guest
Ynt: Gitar Akor Ve Tabları (Türkçe Şarkılar)

MFÖ - Sarı Laleler

intro
C
E||--------------------------|-----------------0-----|
G||--------------------------|-----------------0-----|
D||---------00-22-44-5-------|-55-44-22-0h2p0--2-----|
A||--22-33-------------------|-----------------1-----|
E||--------------------------|-----------------0-----|
Em
E||--------------------------|-----------------0-----|
G||--------------------------|-----------------2-----|
D||---------00-22-44---------|-0-2-0-----------2-----|
A||-00-22-33-----------------|--------3-2--3-2-0-----|
E||--------------------------|-----------------0-----|


Em C
Uykulu gözlerle döndüm rüyamdan
D C Em
Sana sarı laleler aldım çiçek pazarından
C
Sen olmasan buralara gelemezdim ben
D C Em
Sevemezdim bu şehri anlamazdım dilinden


intro tekrar



C B7
Nasıl bir sevdaysa bu karşı koyamam
C B7
Dayanırım kıskanırım seni paylaşamam
Am
Satırlar uçar gider aklımdan
C Am Em
Sana sarı laleler aldım çiçek pazarından



Em C
Uykulu gözlerle döndüm rüyamdan
D C Em
Sana sarı laleler aldım çiçek pazarından
C
Sen olmasan buralara gelemezdim ben
D C Em
Sevemezdim bu şehri anlamazdım dilinden



C B7
Yeniden başlasam bu sefer korkmadan
C B7
Koklayıp birbirimizi çöpe atmadan
Am
Satırlar uçar gider aklımdan
C Am Em
Sana sarı laleler aldım çiçek pazarından


Em C
Uykulu gözlerle döndüm rüyamdan
D C Em
Sana sarı laleler aldım çiçek pazarından
C
Sen olmasan buralara gelemezdim ben
D C Em
Sevemezdim bu şehri anlamazdım dilinden
 
B

badem

Guest
Ynt: Gitar Akor Ve Tabları (Türkçe Şarkılar)

MFÖ - Sanatçının Öyküsü

D Bm
Bütün kabile kızar bana
G D
Derler bu adam çalışmaz mı
D Bm
Bu adam hep düşünür mü
G Gm D
Bir kuş ölmüş diye üzülür mü
Dsus2
Gündüz böyle diyenler
Dm
Geceyarı olunca
Dsus2 Dm
Ateşler yakılınca,denizler coşunca
D C F-G
Ben bir şarkı söylerim,yorgun insanlara
Em F
Bakın bakın,martılar uçar
Em F
Bakın bakın,yıldızlar koşar
Gm A D
Bakın ne güzel bir hayat var dünyamızda

G Em G
Bir hüzün çöker,bir garip olur insanlar
G Em
Yaklaşırlar birbirlerine

Am D Bm Em-E
Şarkım sürer sabaha kadar
C D G
Melekler uçar üstünüzde

Bm F# Em-G F#
Bu sabah uyandırmamışlar beni,ava giden dostlar
G D
Ne güzel,ne güzel
 
B

badem

Guest
Ynt: Gitar Akor Ve Tabları (Türkçe Şarkılar)

MFÖ - Sen ve ben

E D E D
Sen ve ben, ayni seyleri dusunurken
E D E D
Ayni seylere uzulup, ayni seylere sevinirken
E D E D D7 E E7
Sen ve ben, anlasamadik gitti, sonunda bitti

E
Resmin kalsin yeter
B7 A E
Ben hala yalniz ve cilginlar gibi
B7 A E
Ben hala yalniz ve cilgin
B A E
Bu gemi nereye nereye gider
B A E
Kimler iner, kimler biner, bilinmez bilinmez
 
B

badem

Guest
Ynt: Gitar Akor Ve Tabları (Türkçe Şarkılar)

MFÖ - Tam Ortasındayım

Am F G C F G )
Tam ortasindayim yagmurun, karin, sogugun ortasindayim ) 2

C Dm F G
Nasil da paylasiyor insan isterse
F G Am C
Nasil da birmis meger hasretler
Am Dm G C
Nasil da mecburmusuz sabretmeye, sevmeye, ögrenmeye

Am F G C F G )
Tam ortasindayim yolun, mmm, kosunun ortasindayim ) 2

C Dm F G
Tam variyorum ki hedefe bir yenisi basliyor
F G Am C
Bu oyun hep ayni, degismiyor
Am Dm G C
Hala devam, hala figan, hem de bile bile

C Dm F G
Nasil da paylasiyor insan isterse
F G Am C
Nasil da birmis meger hasretler
Am Dm G
Nasil da mecburmusuz sabretmeye, sevmeye,
C G C G C G
Ögrenmeye, ögrenmeye, ögrenmeye
 
B

badem

Guest
Ynt: Gitar Akor Ve Tabları (Türkçe Şarkılar)

MFÖ - Uç Oldum

Am E E Bm7(b5) Am
Nerden çıktın karşıma, uçurdun uzaklara
Am E G Bm7(b5) Am
Baharda yazda kış olunca, uçtum uçtum uç oldum
Bm7(b5) Cm7(b5) Bm7(b5) Am
Bir topacık suç oldum


Am D E Am
Ben ben oldum, bizler oldum , bizden de geçtim hiç oldum
Am D Bm E Am
Öldürmedim bak kendimi, uslandır tenezzül eyle
Bm7(b5) Cm7(b5) Bm7(b5) Am
Uslandır tenezzül eyle


Am E E Bm7(b5) Am
İnanmayanlar elendiler, ben hep seni düşündüm
Am E G Bm7(b5) Am
Baharda yazda kış olunca, uçtum uçtum uç oldum
Bm7(b5) Cm7(b5) Bm7(b5) Am
Bir topacık suç oldum

Am D E Am
Sevmeyenler elendiler, ben hep seni düşündüm
Am D Bm E Am
Baharda yazda kış olunca, düşün düşün düş oldum
Bm7(b5) Cm7(b5) Bm7(b5) Am
Seni gördüm aşık oldum ) x 4

Albüm: Collection

Akorlar:
------------------------------
Am : x0221x
E : 02210x
Bm7(b5) : x2323x
Cm7(b5) : x3434x
Bm : x24432
D : xx0232
G : 32000x
------------------------------
Not: Çalarken 5&8' lik olduğuna dikkat ediniz!
 
B

badem

Guest
Ynt: Gitar Akor Ve Tabları (Türkçe Şarkılar)

VURGUN YEDİM - MFÖ

intro;
E A B E A B

E
Aşkta böyle
C#m
Derinlere inmeseydim
F#m B E
Sevenlerden, başka türlü sevmeseydim
E
Tapar gibi
C#m
yüzüne yüz sürmeseydim
F#m B E sus
Geceleri yollarına düşmeseydim

( C#m
( Vurgun yedim
2x ( G#m A-B
( Bu sevdadan vurgun yedim

solo;
E A B E A B

E
Haram edip
C#m
Uykuları bölmeseydim
F#m B E
İhanetin hoş görürdüm bilmeseydim
E
Hain değil,
C#m
zalim değil vicdansızsın
F#m B E sus
Taş yürekli olduğunu bilemedim

( C#m
( Vurgun yedim
2x ( G#m A-B
( Bu sevdadan vurgun yedim
 
B

badem

Guest
Ynt: Gitar Akor Ve Tabları (Türkçe Şarkılar)

MFÖ - Yalnızlar Garı

Em D
Sensizligi bitmedi gecelerimizin
Em D
Farkina varamadim nuktelerimizin
C Em
Dervisler devran ederken gecelerde
D Em
Ben hoy bir mehtap, kelimeler birer varsayim
C B7 Em C B7 Em
Ana yalnizlar garindayim, Ana yalnizlar garindayim

Em D
Evden sokaga zorlanmis kizginliklarim
Em D
De hele kurbanim n'olacak halim
C Em
Cocuklarim, karim, kagit kalem gitarim icin
D Em
Onca cileye katlandim ana yalnizlar garindayim
C B7 Em C B7 Em
Ana yalnizlar garindayim, Ana yalnizlar garindayim

Em D
Sensizligi bitmedi gecelerimizin
Em D
Farkina varamadim aile cay bahcelerinin
C Em
Radyasyon bulutlari gecti gecelerden
D Em
Ben hoy bir mehtap, kelimeler birer varsayim
C B7 Em C B7 Em
Ana yalnizlar garindayim, Ana yalnizlar garindayim
 
B

badem

Guest
Ynt: Gitar Akor Ve Tabları (Türkçe Şarkılar)

MFÖ - Yalnızlık Ömür Boyu

Em D C
Senle beraber olsam da sevgilim,
Em D C
Ayrılsak da ölsek de bu yolda
Em D C D
Hep yalnızlık yavrum yalnızlık ömür boyu
B
Yalnızlık ömür boyu

Em D C
Senle beraber olsam da sevgilim
Em D C
Hiç görmesek birbirimizi,özlesek
Em D C D
Ömür boyu bağlansak da,sevinsek de,üzülsek de
B
Yalnızlık ömür boyu

Am D B Em
Birden sen gelsen aklıma,seni unutsam bazı bazı
C Am B
Meraklansam gizlice, delice kıskansam seni
Am D B Em
Hep yalnızlık var sonunda,yalnızlık ömür boyu
C Am B
Hep yalnızlık var sonunda,yalnızlık ömür boyu
 
B

badem

Guest
Ynt: Gitar Akor Ve Tabları (Türkçe Şarkılar)

MFÖ - Yalnızlık Ömür Boyu (Tab)

Em : 022000
D : xx0232
C : x32010
B : x24442

--------------

& = slide
h = hammer-on
p = pull off



intro:

Em D C

E --7-8----7---------------------8-10-8----7----------------
B ------10---8-10-7-8-----7-8-7----------10-10---7-8-7------
G --------------------9---------------------------------9---
D ----------------------------------------------------------
A ----------------------------------------------------------
E ----------------------------------------------------------

Em D C
E ---10-8-7--------7----------------------------------------
B --7------10-8-10----8-8h10-10&12--8-8-12-10--7-8-7-8------
G ---------------------------------------------7------------
D ----------------------------------------------------------
A ----------------------------------------------------------
E ----------------------------------------------------------


(C) Em D C D
E -8-7-8-10-8-7-8-----7-------------------------------------
B ----------------------10-8-----10-8-7----8-7-5----10-8-10-
G -----------------&9----------&7--------&5-------&9--------
D ----------------------------------------------------------
A ----------------------------------------------------------
E ----------------------------------------------------------

B Em

E --8h10p8-7------8h10p8------7-----8-7----------7----------
B -----------10-8--------10-7-----------10-8-10-------------
G ----------------------------------------------------------
D ----------------------------------------------------------
A ----------------------------------------------------------
E ----------------------------------------------------------
 
B

badem

Guest
Ynt: Gitar Akor Ve Tabları (Türkçe Şarkılar)

Murat Kekilli - Ayrılık

Kapo 3

Am Dm Am
Sana uzaktan bakıyor artık gözlerim
Am
Gönlüm senden geçmez
Dm Am
Bana döndü hep sözlerim

Dm Am C
Unutmak o kadar kolay mı sandın
Gm Bb Gm Am
Ayrılık bana aşktır artık

Am Dm Am
Dağılmış saclarım gönlünün yatağına uyandırma
Am
Sabah olsun ben giderim
Dm Am
Sen kal rüyamda

Nakarat

Dm Am
Aramak o kadar kolay mı sandın
Gm Bb Gm Am
Yolların bana aşktır artık

Dm Am
Ah gitmek o kadar kolay mı sandın
Gm Bb Gm Am
Yolların bana aşktır artık
 
B

badem

Guest
Ynt: Gitar Akor Ve Tabları (Türkçe Şarkılar)

Murat Kekilli - Ayrılık (Tab)

Kapo 3
Dm Am
E----------1----1--------------0-----0-------E |
B--------3---3----3--------------1-----1-----B |
G------2-------2------------2-------2--------G -> A
D----0--------------------2------------------D |
A-----------------------0--------------------A |
E--------------------------------------------E |

Dm Am
E----------1h3-1--3------------0-----0-------E
B--------3-----------------------1-----1-----B
G------2--------------------2-------2--------G
D----0--------------------2------------------D
A-----------------------0--------------------A
E--------------------------------------------E

Gm Bbm
E----------1-----1------------1-----1--------E |
B------------1-----1------------2-----2------B |
G--------4-----4------------3-----3----------G -> B
D-------------------------3------------------D |
A------5----------------1--------------------A |
E----3---------------------------------------E |

Gm Am
E----------1-----1------------0-----0--------E
B------------1-----1------------1-----1------B
G--------4-----4------------2-----2----------G
D-------------------------2------------------D
A------5----------------0--------------------A
E----3---------------------------------------E

Tekrar A

Dm Am
E----------1-----3h5-----------0-----0-------E
B--------3---3--------------------1-----1----B
G------2-------2-------------2-------2-------G
D----0--------------------2------------------D
A-----------------------0--------------------A
E--------------------------------------------E

Tekrar B
Gm Bbm
E--------------------------------------------E
B----------3------------------2--------------B
G--------4------------------3----------------G
D-------------------------3------------------D
A------5----------------1--------------------A
E----3---------------------------------------E

Am Gm
E----------------------------------E
B----------3h5-5--------------3----B
G--------2------------------4------G
D------2---------------------------D
A----0--------------------5--------A
E-----------------------3----------E

Bbm Am
E-----------------------------0-----0--------E
B----------2--------------------1-----1------B
G--------3------------------2-----2----------G
D------3------------------2------------------D
A----1------------------0--------------------A
E----------------------------------------0---E
 
B

badem

Guest
Ynt: Gitar Akor Ve Tabları (Türkçe Şarkılar)

Kapo 4

Em
Bu akşam ölürüm beni kimse tutamaz
D
Sen bile tutamazsın, yıldızlar tutamaz
C
Bir uçurum gibi düşerim gözlerinden
Am B7
Gözlerin ben tutamaz.

Em
Bir şiir yazarım, bir türkü söylerim
D
Bir sen olurum, bir ben ölürüm
C
Bu akşam ölürüm sırf senin için
Am B7
Beni ölüm bile anlamaz

G E Am
Düşlerinde büyürüm, büyürüm
C Em
Kabusun olur ölürüm
G E Am
Düşlerinde büyürüm, büyürüm
C B7 Em
Kabusun olur ölürüm
 
B

badem

Guest
Ynt: Gitar Akor Ve Tabları (Türkçe Şarkılar)

Murat Kekilli - Bu Akşam Ölürüm (Tab)

e----------------14---------------------------------------
B---14--16-15b------17-16-14h16-14~~--16b-16-14-16p14-----
G-16--------------------------------------------------16~~
D---------------------------------------------------------
A---------------------------------------------------------

00:29
e--------------------------14-----------------------
B--15b-14----14----------14----15b-14-15b-16p15p13~~
G----------16--16-15---16---------------------------
D---------------------------------------------------
A---------------------------------------------------

00:37
e--14------------14~--14h16-14~----------------------
B-----17-16-14h16--------------17-16-14-16p14--------
G--------------------------------------------16~~16~~
D----------------------------------------------------
A----------------------------------------------------

00:46
e---------------------------------------
B----------14~--15b---------------------
G-13-15-16--------15~---16-15-----------
D-----------------------------16-16s18~~
A---------------------------------------
 
B

badem

Guest
Ynt: Gitar Akor Ve Tabları (Türkçe Şarkılar)

Murat Kekilli - Çılgın

Am G
Seni çılgın hadi oradan
F E
Seni sevdiğimide nerden çıkardın
Am G
Seni çılgın hadi oradan
F E
Sana vurulduğumu da nerden çıkardın

Dm C
(Ne vicut ölçülerin ne masum güzelliğin
2 ( E
(Beni hiçmi hiç alakadar etmiyor
Am Em F Em Em7
Tanrım bu söylediklerimin hepsi yalan...

Am
Bana bir gülüyorsun ya
G
Hani murat diyorsun ya
F E E7 E
Hani bakıyorsun ya göz bebeklerimin içine
Am G
Sen bana aldırma gel yağmura ne gerek var gel
F E
Sana sırılsıklam ağşığım gel
 
B

badem

Guest
Ynt: Gitar Akor Ve Tabları (Türkçe Şarkılar)

Özgür Çevik-Özür Dilerim

Dm .am .g .am
Sanki biliyormuşum gibi hazırdım gelişine
Dm .am .g .am
Ellerini tutarım sandım uzandım gözlerine
Dm .am .g .am
Ellerim temizdi oysa, bunca kir benden değil
Dm .am G .am
Pay almak istedim güzelliğinden niyetim kötü değil

G .am
İncittiysem özür dilerim bebeğim
G Am
Kirlettiysem özür dilerim

Dm Am .g .am
Yüzün sinmiş düşlerime lekeleri çıkmıyor gülüşünün
Dm .am .g .am
Suçu yıktın üzerime yargılıyor masumiyetin
Dm .am .g .am
İstemezdim böyle bitsin üzülmeni istemedim
Dm .am .g .am
Güç almak istermisin ellerimi göndereyim

G .am
İncittiysem özür dilerim bebeğim
G .am
Kirlettiysem özür dilerim
 
B

badem

Guest
Ynt: Gitar Akor Ve Tabları (Türkçe Şarkılar)

Ayşegül - Zaman Olmaz Mı

Am F
inan bana cok gec degil
Em Am
mevsim bahar daha kış değil
Am F *2
birkez daha dayanamam
Em Am
kalbim nasır ama taş degil


Dm G Em Am
bir rüzgar esse biryerlerden
Dm G C Em
savurur mu goturur mu beni bilmem
DM G Em Am
o asık mazide kaldı artık
Dm G C Em
donecek mi geriye onu bilmem

(nakarat)

C G Am Em Am
hiç zaman olmaz mı geri gelmez mi
F C Em
savunmasız duygular
C G Am Em Am
aah o gunleri bir daha vermez mi
F C Em
acımasız su yıllar
 
B

badem

Guest
Ynt: Gitar Akor Ve Tabları (Türkçe Şarkılar)

Kıraç - Endamın Yeter

Em Am
Endamin yeter gozlerin yeter
D G C B7 Em
Ugramasin sana ne huzun ne de keder

Em Am )
Kalbim senden senden vazgecmeyecek )
D G )
Korkma icimde askin hic bitmeyecek )
C F# )
Eger istersen bu sonsuza dek surecek )
B7 Em )
Inan bu adam hep seni seni sevecek ) X
Em Am )
Gonlum senden senden vazgecmeyecek )
D G )
Korkma icimde askin hic bitmeyecek )
C F# )
Eger istersen bu sonsuza dek surecek )
B7 Em B7 )
Inan bu adam hep seni sevecek )


Em Am D G C F# B7 Em 2 Kez

Em Am
Endamin yeter gozlerin yeter
D G C B7
Ugramasin sana ne huzun ne de keder
Em Am
Bir gun gelir gecer yuzundeki cizgiler
D G C B7
Ne askin son bulur ne icimde o dusler

X Bolumu tekrar...
B7 Em C Am Em
Inan bu adam hep seni sevecek
 
B

badem

Guest
Ynt: Gitar Akor Ve Tabları (Türkçe Şarkılar)

Kıraç - Kan Ve Gül

Em D )
Kan ve gül gülle diken aşkın ve sen )
Am Em ) 2
Birbirine dönük sırt sen ve ben )

D Em
Bilmem anlatabiliyor muyum

Em D )
Seviyorum seviyor musun )
Em D )
Ağlıyorum gülüyor musun )
Em D ) 2
Özlüyorum gidiyor musun )
G D )
Sevdikçe itiyor musun )
C B7 )
Peki öyle olsun )

Em )
Sarılıp öpen ağlayıp gülen )
D )
Sonra kaçıp giden ) 2
Am Em )
Fırtınayla sakin gece bir bilmece )

D Em
Bilmem anlatabiliyor muyum

Tekrar Nakarat
 
B

badem

Guest
Ynt: Gitar Akor Ve Tabları (Türkçe Şarkılar)

Kıraç - Karahisar Kalesi

Am Em F G
Karahisar kalesi yıkılır gelir (x2)
Am G C Am F C Dm F Em F G
Kahkülü boynuna dökülür gelir dökülür gelir (x2)
Am G C Am F C
Yayladan gel allı gelin yayladan
Am G C Am F C Dm F Em F G
Kesme ümidini kadir mevladan kadir mevladan
Am G C Am F C Dm F Em F G
Ver elini karlı dağlar aşalım bayramlaşalım

Am Em F G
Ben bir koyun olsam sen de bir kuzu (x2)
Am G C Am F C Dm F Em F G
Meleye meleye getirek yazı getirek yazı (X2)
Am G C Am F C
Yayladan gel allı gelin yayladan
Am G C Am F C Dm F Em F G
Kesme ümidini kadir mevladan kadir mevladan
Am G C Am F C Dm F Em F G
Ver elini karlı dağlar aşalım bayramlaşalım
 
Üst