Gitar Akor Ve Tabları (Türkçe Şarkılar)

B

badem

Guest
Ynt: Gitar Akor Ve Tabları (Türkçe Şarkılar)

MFÖ - Bazen

Am F E
Günes dogar günes batar
Am F G E
Ama insan uyumaz bazen düsünür

Am F E
Geceler kisa çabuk geçer
Am F G E
Ama insan uyumaz bazen düsünür
G Bm F

Deniz masmavidir ne güzel
F C G
Ama insanlar görmez bazen

G Bm F
Siirler sarkilar masallar
F C G
Ama insanlar duymaz bazen

G F Am
Üzme kendini ümitsiz gibi
F Am Bm
Sevenin var bak ne güzel
 
B

badem

Guest
Ynt: Gitar Akor Ve Tabları (Türkçe Şarkılar)

MFÖ - Bodrum Bodrum

D F# Bm G
Nasil anlatsam nerden baslasam
D G D G
Bodrum Bodrum Bodrum Bodrum

D F# Bm G
Duygu biraz duygu bütün istegim buydu
D F# Bm G
Biraz deniz biraz uyku bütün istegim buydu
D G D G
Bodrum Bodrum Bodrum Bodrum

D F#
Nasil anlatsam nerden baslasam
Bm G D G
Kaç kisiydik o zaman bak kaç kisi kaldi simdi
D G D G
Bodrum Bodrum Bodrum Bodrum

D F#
Bir zamanlar asik olmustum
Bm G
Ama simdi ismi neydi unuttum
D G D G
Bodrum Bodrum Bodrum Bodrum
 
B

badem

Guest
Ynt: Gitar Akor Ve Tabları (Türkçe Şarkılar)

MFÖ - Bu Sabah Yağmur Var İstanbul'da

D7&A - D6&G# - D5&G - D - Dm - Dm

Dm Gm )
Bu sabah yagmur var Istanbul'da )
A7 Dm )
Gözlerim dolu dolu oluyor, bilinmez niye )
Gm )
Anne sözü dinler gibi masum )
A A7 )
Agladim bu sabah )
D Bm Em A D ) 2
Günler dayanilmaz oldu, senden uzak olunca )
D Bm Em A7 D )
Martilar mahsun oldu, onlar bile agladilar )
Gm F#m Em A7 Dm )
Sarkilarda düsünmek seni bana getirmez ki )
Gm A7 )
Seni bana getirmez ki )

Gm D
Seni bana getirmez ki
 
B

badem

Guest
Ynt: Gitar Akor Ve Tabları (Türkçe Şarkılar)

MFÖ - Bu Sabah Yağmur Var İstanbulda (Tab)

Intro

e---10--10-------10--10-------10--10------5--5----|
B-10--10--10----9---9---9----8---8---8---7--7--7--|
G-------------------------------------------------|
D-------------------------------------------------|
A-------------------------------------------------|
E-------------------------------------------------|


e---5--5------5--5-------------|
B--6--6--6---6--6--6-----------|
G------------------------------|
D------------------------------|
A------------------------------|
E------------------------------|


Dm Gm
Bu sabah yagmur var Istanbulda

A Dm
Gozlerim dolu dolu oluyor bilinmez niye

Gm
Anne sozu dinler gibi masum

A7
Agladim bu sabah

D Bm7 Em A D Em A
Gunler dayanilmaz oldu, senden uzak olunca

D Bm7 Em A D
Martilar mahsun oldu, onlar bile agladilar

G Bm7&F# Em A Dm
Sarkilarda dusunmek seni bana getirmezki

Dm&C# Dm&C Dm&B

Gm A
Seni bana getirmez ki

Dm Gm
Bu sabah yagmur var Istanbulda

A Dm
Gozlerim dolu dolu oluyor bilinmez niye

Gm
Anne sozu dinler gibi masum

A7
Agladim bu sabah

D Bm7 Em A D Em A
Gunler dayanilmaz oldu, senden uzak olunca

D Bm7 Em A D
Martilar mahsun oldu, onlar bile agladilar

G Bm7&F# Em A Dm
Sarkilarda dusunmek seni bana getirmezki

Dm&C# Dm&C Dm&B


Gm A
Seni bana getirmez ki

Gm D
Seni bana getirmez ki
 
B

badem

Guest
Ynt: Gitar Akor Ve Tabları (Türkçe Şarkılar)

MFÖ - Buselik Makamına

Am E Am )
Leyladan geçme faslindayim )
G E ) 2
Mevlayi bulma yollarinda )

Dm Am E
Majörler tükendi, minörlere yolculuk
Am C Am C Am
Buselik makamina, buselik makamina

Am E Am
Ask için söylenen her söze kandim
G E
Pervane misali atese yandim
Am E Am
Gördügüm her dilber atestir bana
G E
Mecazi aska inandim, günesli havalarda
Am C Am C Am
Buselik makamina, buselik makamina
 
B

badem

Guest
Ynt: Gitar Akor Ve Tabları (Türkçe Şarkılar)

MFÖ - Deli Deli

G Em G Em
Bak kim geliyor görüyor musun
G Em G Em
Iste bir deli halinden belli
G Em )
Deli deli kulaklari küpeli ) 2

Am D G Em
Bizlerin bizlere oyunu bu
Am D G Em
Deli diye kesip atmak isin kolay yolu
Am D G Em
Bunun bir basi sonu yok mu
Am D
Sebepsiz sonuç olur (mu)
G Em )
Deli deli kulaklari küpeli ) 2

Am D G
Yolladilar onu Avrupa'ya (Avrupa Avrupa)
Am D G Em
Kendi yolunu bulmaya
Am D G Em
Derken bir gün iki yil sonra
Am D
Bir de küpe takmis kulagi(na)
G Em )
Deli deli kulaklari küpeli ) 2

TEKRAR
 
B

badem

Guest
Ynt: Gitar Akor Ve Tabları (Türkçe Şarkılar)

MFÖ - Deneylere Doğru

Dm C
Topluca bu toplumda bir topluluk
Em Am
Deneylere doğru

Dm C Dm
Dilsizler ordusu,kaval sesleri
Dm C
Sürüler misali bir koyunluk
Dm C Dm
Doğu batı arası köprüymüşüz de
Dm C Em-Am
Sentezmişiz bir düş de satılık

Am E
Biz ne suntalar ne cuntalar
C Dm
Flamingo yolları
C
Signs fiction showları
Em Am
Ve daha neler neler gördük
Am E
Yedi kat derinde yasaklar
C Dm
Kelimeler bitti tükendi
C
Muska misali bir gizlilik
Em
Ve daha neler neler.

Dm C
Topluca bu toplumda bir topluluk
Em Am
Deneylere doğru
Em Am
Deneylere doğru
 
B

badem

Guest
Ynt: Gitar Akor Ve Tabları (Türkçe Şarkılar)

MFÖ - Ele güne karşı

Am
Arayip sormasan da unuttum seni sanma
Dm Am
Dünya biryana sen biryana
C Dm
Asik ettin beni kendine sonra da terkettin gizlice
G E
Aradim seni heryerde hiçkimselere soramadim

Am
Bekledim dön diye dönmedin bile bile
Dm Am
Bile bile sevdigimi korkundan gelmedin
C Dm
Arayip sormasan da unuttum seni sanma sakin
G E
Dünya bir yana sen bir yana

( F G Dm Am
( Ele güne karsi yapayalniz böyle de olmaz ki
( F G Dm Am
( Nasil da gittin insafsiz böyle birakilmaz ki
A ( F C
( Unuturum sanmistin güzelim
( Dm E
( Gözüm yollarda kaldi

Am
Haberin gelir bana duyarim nasil olsa
Dm Am
Bilirim kimlerlesin ne yaptin neler ettin
C Dm
Aklim fikrim hep sende sevsen de sevmesen de
G E
Seni hiç aldatmadim aldatmayi hiç sevmem

TEKRAR A
 
B

badem

Guest
Ynt: Gitar Akor Ve Tabları (Türkçe Şarkılar)

MFÖ - Gözyaşlarımızı Bitti mi Sandın?

Am C Dm
Günler günlerin ardindan
Am C Am
Seni unutmak mecburiyetindeyim
C Dm
Seni sevmeler cumhuriyetinde
C Dm
Gözyaslarin, gözyaslarim

( Dm G Am
( Kafiye olsun diye degil
( G Am
( Özleye özleye kavustuk birbirimize
A ( Dm Am G Am
( Birbirimize vitaminler moraller verdik
( Dm Am G Am
( Içimizdeki seytanlara zülfikarlarla saldirdik
( C G Am
( Gözyaslarimizi bitti mi sandin?

Am C Dm
Günler günlerin ardindan
Am C Am
Seni unutmak mecburiyetindeyim
C Dm
Seni sevmeler cumhuriyetinde
C Dm
Senin dullugun, benim kullugum

TEKRAR A
 
B

badem

Guest
Ynt: Gitar Akor Ve Tabları (Türkçe Şarkılar)

MFÖ - Güllerin İçinden

Dm C
Güllerin içinden canim
Gm Dm
Kosarak kosarak gel bana gel
Dm C
O güzel gözlerini canim
Gm Dm
Süzerek süzerek gel bana gel
Dm C
Bu küskün yüzün gayri gülsün canim
Gm Dm
Gülerek gülerek gel bana gel
Dm C
Dayanamadim gayri döndüm canim
Gm Dm & C & Dm
Diyerek diyerek gel bana gel
Am
Aaaaaa...
 
B

badem

Guest
Ynt: Gitar Akor Ve Tabları (Türkçe Şarkılar)

MFÖ - Güllerin İçinden (Intro) (Tab)

E|---------------------|-----------------------------------|
B|---------------------|-----------------------------------|
G|-2--2-2---2-0-2-0-0--|--0-2-0----0--0-----0---0-2--------|
D|---------------------|------------3------3-------3---2-3-|
A|---------------------|-----------------------------------|
E|---------------------|-----------------------------------|

E|---------------------|-----------------------------------|
B|---------------------|-----------------------------------|
G|-2--2-2---2-0-2-2-0--|--0-2-0----0--0-----0---0-2--------|
D|---------------------|------------3------3-------3---2-3-|
A|---------------------|-----------------------------------|
E|---------------------|-----------------------------------|
 
B

badem

Guest
Ynt: Gitar Akor Ve Tabları (Türkçe Şarkılar)

MFÖ - Güllerin İçinden (Tab)

E-------------|-------------|--------------|
B-------------|-------------|--------------|
G-------------|-------------|--------------|
D--7----7-7~--|------7h5h7--|--5-------5h7-|
A-------------|-------------|--------------|
E-------------|-------------|--------------|

-----------|--------------|-------------|-------------|
-----------|--------------|-------------|-------------|
-----------|--------------|-------------|-------------| x2
--5~-------|--5-3-5-----3-|--5~----5--7-|--3~-----2-3-|
-----------|--------------|-------------|-------------|
-----------|--------------|-------------|-------------|

-----------------|----------------|
-----------------|----------------|
----5h4-5h7-4----|----5~-5-7-4----|
---------------7-|--------------7-|
-----------------|----------------|
-----------------|----------------|

----------------|----------|-----------------|
----------------|----------|-----------------|
----5~-5h7-4----|----------|----5h4-5h7-4----|
--------------7-|----------|---------------7-|
----------------|----------|-----------------|
----------------|----------|-----------------|

----------------|----------------|----------|--------------|
----------------|----------------|----------|-----------5--|
----5~-5h7-4----|----5~-5h7-4----|----------|-------5-7----|
--------------7-|--------------7-|----------|----7---------|
----------------|----------------|----------|--------------|
----------------|----------------|----------|--------------|

------------|-----------------|-----------|---------------|
------------|----6h8--8-6-5h6-|--5--------|-------6-5-6-8-|
---7-7------|-----------------|-----------|----7----------|
------------|-----------------|-----------|---------------|
------------|-----------------|-----------|---------------|
------------|-----------------|-----------|---------------|

-------------|---------------|--------5---|---------------|
------6-8--6-|----6-5-6-5-6--|------8-----|-------6-5-----|
-------------|---------------|------------|----7------7-7~|
-------------|---------------|------------|---------------|
-------------|---------------|------------|---------------|
-------------|---------------|------------|---------------|

--------------|----------------|----------|--------------|
--------------|----------------|----------|--------------|
------7-4h5-7-|--4-5-----------|----------|----7-5--3--2-|
--------------|------7-7---7-5-|----------|--------------|
--------------|----------------|----------|--------------|
--------------|----------------|----------|--------------|

--------------|-------------|------------||-----------|
--------------|-------------|------------||-----------|
----2---------|-------------|----2-------||*----------|
------5---3h5-|----3-5--3---|--5---------||*----------|
--------------|-------------|------------||-----------|
--------------|-------------|------------||-----------|
 
B

badem

Guest
Ynt: Gitar Akor Ve Tabları (Türkçe Şarkılar)

MFÖ - İstedim

Am
Sanki bir hayal gibi nasilda dolastin hayatimda
C G Am
Bir yudumda dogmak bir sevgide ölmek istedim
F G Am
Gecelerde bir gölge olmak istedim
F G Am
Sonsuza dogru akip gitmek istedim

C Am
Bir resim bir rüya belki bir sarki
F G Am
Ayni bedende iki gönül olmak istedim
F G Am
Ve de yanimda bir tek seni istedim

Am
Oysa bir yanlis gibi silinmeye yazildim satirlara
C G Am
Her ölümde dogmak hiç yok olmamak istedim
F G Am
Sensizlige öfkeli sabir istedim
F G Am
Gönüllerde sevgiye yol ver istedim

C Am
Bir kere gördüm bir kere sevdim bin kez istedim
F G Am
Ayni sarkida iki gönül olmak istedim
F G Am
Ve de yanimda bir tek seni istedim
 
B

badem

Guest
Ynt: Gitar Akor Ve Tabları (Türkçe Şarkılar)

MFÖ - Kelimeler Kafi

SOLO&C&G&Am&C&G&Am
C G
Ayrılıktan mıdır nedir?
Am
Kavuşma isteği bu gayret
C G D
Seneler geçti eskimemiş bu sevda hayret
C G Am
Istanbul gecelerinde Paris sokaklarında
C G D
Ankara'da evimde böyle bu
Dm C Em
Bodrum' gidemez oldum yıldızlar şahidim
Dm C G
Yıldızlar uzak anlatmak zor
Dm
Sevgilim olmadı senden sonra
C Em
Dostlarım benden apayrı
Dm Dm6
Kızım büyüdü maşallah
Dm7 Dm+ Dm
Senin de bir oğlun olmuş ne güzel
Dm6
Orta yaşlı olduk artık
Dm7 Dm+ Am7
Saçım hafif kel

SOLO&C&G&Am&C&G&Am
C G
Seninle kırılmışız bir zaman )
Am )
Tamiri zor bilirsin )
C G D )
Kırık kalpler derneğinde suskunuz )
C G )---
Son bir denemeye ne dersin )-A-
Am )---
Ödemeler peşin bu sefer )
C G )
Ümitler,en kolay becerdiğim )
D )
Kelimeler kafi )
Dm
Bodrum'a gidemez oldum
C Em
Yıldızlar şahidim
Dm C G
Yıldızlar uzak anlatmak zor

SOLO&C&G&Am&C&G&Am

TEKRAR A
 
B

badem

Guest
Ynt: Gitar Akor Ve Tabları (Türkçe Şarkılar)

MFÖ - Mazeretim Var,Asabiyim Ben

Am Dm
( Gülmüyor yüzüm hayat zor oldu
( Am
( Güller susuz kurudu soldu
( Dm
( Tövbe ettim gene bozuldu
A ( Am
( Yüregim yanar
( Dm Am Dm Am
( Mazeretim var, asabiyim ben
( Dm Am Dm Am
( Mazeretim var, asabiyim ben

Dm
Eskidim belki gönül yoruldu
Am
Asik oldum soru soruldu
Dm
Affet beni kirdim istemeden
Am
Yüregim yanar
Dm Am Dm Am
Mazeretim var, asabiyim ben
Dm Am Dm Am
Mazeretim var, asabiyim ben

( G
( Bos laf bunlar hepsi bahane
( F E
( Halim ne kötü, ne sahane
( Am G
( Nedir bu böyle ayni hikaye
( F E
( Suç kimde neden böyle
B ( G Dm F Am
( Hüznüm yeter, üstüme varma
( Dm Am E Am
( Soru sorma, biliyorsun mazeretim var
( Dm Am E Am
( Bos konusma görüyorsun asabiyim ben
( Dm Am Dm Am
( Mazeretim var, asabiyim ben
( Dm Am Dm Am
( Mazeretim var, asabiyim ben

TEKRAR A

TEKRAR B
 
B

badem

Guest
Ynt: Gitar Akor Ve Tabları (Türkçe Şarkılar)

MFÖ - Mecburen

C Dm
Erken kalkmak mecburen, ise gitmek mecburen
C G7 C
Eve donmek mecburen, mecburiyetten
C Dm
Of sesleri oof olunca, her kafadan ses cikinca
C G7 C
Sasirinca bunalinca, mecburiyetten

C Dm
Mecburen mecburen, mecburen mecburen

C G7 C
Mecburen mecburen, mecburiyetten
C G7 C
Olan olsun biraktim, anlami yok zorlamanin
C G7
Sans kadere inandim, mecburiyetten
C G7
Bir cok guzeller sevdim, birini biraz fazla
C G7 C
Gonul esit sevmiyor, mecburiyetten
 
B

badem

Guest
Ynt: Gitar Akor Ve Tabları (Türkçe Şarkılar)

Milli Park - MFÖ (Mazhar

Am Dm Am
Biliniyor şarkıların sırası bizde
Am Dm
Biliniyor, hayat bizden razıdır
Dm Am
Otların sarardığı yerlerde güneş
G Am
Kurşunun değdiği yerde heves kalmıştır

Dm Am
Beni artık kimseler aramasın
G Am
Aşkın en tavanında yattığım anlaşılmasın

Dm Am
Korkunçtur yalnızlığımız
G Dm
Bir oyun oynanır oyalanırız
Dm Am
Orman değiliz artık
G Am
Milli parkız

Am Dm Am
Biliniyor şarkıların sırası bizde
Am Dm
Biliniyor, hayat bizden razıdır
Dm Am
Otların sarardığı yerlerde güneş
G Am
Kurşunun değdiği yerde heves kalmıştır

Dm Am
Beni artık kimseler aramasın
G Am
Aşkın en tavanında yattığım anlaşılmasın

Dm Am
Gözyaşları gizlenir
G Dm
İdare edilir durum
Dm Am G Am
İstesek de istemesek de beraberiz yavrum

Dm Am
Korkunçtur yalnızlığımız
G Dm
Bir oyun oynanır oyalanırız
Dm Am
Orman değiliz artık
G Am
Milli parkız

Dm Am
Orman değiliz artık
G Am
Milli parkız
E
Şimdi
Am E Am
Bir çok sayfasını atlayarak bitirdiğim şu kitabın
Dm Am
Başından başlayabilirim ve sonsuz gözyaşlarım

Dm Am
Gözyaşları gizlenir
G Dm
İdare edilir durum
Dm Am G Am
İstesek de istemesek de beraberiz yavrum

Dm Am
Korkunçtur yalnızlığımız
G Dm
Bir oyun oynanır oyalanırız
Dm Am
Orman değiliz artık
G Am
Milli parkız
 
B

badem

Guest
Ynt: Gitar Akor Ve Tabları (Türkçe Şarkılar)

MFÖ - New York Sokaklarında

Em D Em D
Bir güzele gönül verdim anam istemedi
Em D G Em
İyilik mi bu bana bende istek kalmadı
Em D Em D
Kimseleri görmeden uçuverdim uzaklara
Em D G Em
Memleketi düşündüm Newyork sokaklarında
Am C D G
Ayırdetmek güç olur doğru ile eğriyi
C D G Em
Sevmek bize iş olur Newyork sokaklarında
Em
Amerika Amerika...

Em D Em D
Etler olmuş plastik endüstri nükleer
Em D G Em
Metrolara yaklaşma Newyork sokaklarında
Am C D G
Vitaminler avuç avuç siren sesleri her yerde
C D G Em
Kovboylar huzursuz olmuş Newyork sokaklarında
Em
Amerika Amerika...
 
B

badem

Guest
Ynt: Gitar Akor Ve Tabları (Türkçe Şarkılar)

MFÖ - O Neydi

(Kapo 2)
Am G Am G Am
Ömür boyu unutulmaz içimizdeki büyük deprem
F G
O neydi ooo, o önce hafiften ooooo
F Am
Sonra korkutarak varken yok olmak
F G
Sabah oluyor, yeni bir tuzak
F Am
Ooo benim sabahlarımdan çok uzak
G Am G Am
O neydi o oooo o neydi o oooo

Am G Am G Am
Kendi kendime neler ettim boşu boşuna bir telaş
F G F Am
Kaç kere ölmek istedim ama oooo sevişirken yavaş yavaş
F G
Sabah oluyor yeni bir tuzak
F Am
Ooo benim sabahlarımdan çok uzak

Am G Am G Am
Ömür boyu unutulmaz içimizdeki büyük deprem
F G
O neydi ooo o önce hafiften
F Am
Ooooo sonra korkutarak varken yok olmak
F G
Sabah oluyor yeni bir tuzak
F Am
Ooo benim sabahlarımdan çok uzak
G Am G Am
O neydi o oooo o neydi içimizdeki deprem
G Am G Am
O neydi o oooo o neydi içimizdeki deprem
 
B

badem

Guest
Ynt: Gitar Akor Ve Tabları (Türkçe Şarkılar)

MFÖ - Rüyalar

C Am
Rüyalarımın gül kokusu,
C Am
Geceler boyu düşündüm,
C Am
Kıskanmanın faydası yok,
F G C
Gör işte bende boyun büktüm. x 2
C Am C Am
Bir gece geç saatte seni buldum,
C Am
Birden ürperdi bütün vücudum,
C Am
Hançerini çektin sapladın gittin,
F G C
Sen beni ya sevdin ya da sevmedin. x 2

C Am F G
Yaralarım geçer gibi oldu,zamanla
C Am G F
Sonra bir yangının külünü yeniden yakıp geçtik biz

Senle yanyana x 2

Sonrası rüyalar,rüyalar,rüyalar. x 2
Mmmmmmmmmmm.........
Senle yanyana, senle yanyana....

Rüyalarımın gülkokusu,
Geceler boyu düşündüm,
Kıskanmanın faydası yok,
Gör işte bende boyun büktüm

Bu sıkıntı bu perde, kalkıverse birdenbire,
Öbür dünya cennetini kursam kendi içimde,
Sonrası rüyalar, rüyalar.... x 2
 
Üst